Oops, an error
Loading. Please wait.

Caramel Bass Tab

2,279 views 1 this week
no commentswrite comment
1 2 3 4 5
please rate
add to favorites
launch autoscroll
font size
0
reset
guitar tuner
Tab Pro tools
  • play this tab
  • loop segment
  • change instrument
  • show fretboard
  • metronome
×
Best way to learn
"Caramel"
Autoscroll
slow
fast
+/-
esc
set tempo
stop
Contributor
-------------------------------------------------------------------------------
			     CARAMEL – Suzanne Vega
-------------------------------------------------------------------------------

Tabbed By : GioVle
e-mail: gvleminckx@gmail.com

Tuning: GDAE


Intro

G|-----------|-----------|
D|---5-4-3-2-|-1-1-0-0---|
A|-----------|---------1-|   x4
E|-3---------|-----------|


Verse

G|-----|-----|-----|-----|-----|-----|-----------|-----------|
D|-----|-----|-----|-----|-----|-----|---5-4-3-2-|-1-1-0-0---|
A|-----|-4-4-|-----|-5-5-|-----|-5-5-|-----------|---------1-|
E|-3-3-|-----|-5-5-|-----|-5-5-|-----|-3---------|-----------|

G|-----|-----|-----|-----|-----|-----|-----|-----------|
D|-----|-----|-----|-----|-----|-----|-----|---5-4-----|
A|-----|-4-4-|-----|-5-5-|-----|-----|-----|---------2-|
E|-3-3-|-----|-5-5-|-----|-5-5-|-4-4-|-3-3-|-3-----3---|


Chorus

G|-------|-2-2-3-|-5-5-3-|---------|
D|-----5-|-------|-------|-5-5-3---|
A|-3-3---|-------|-------|-------5-|
E|-------|-------|-------|---------|

G|-------|-2-2-3-|-5-7-8-|-7-------|
D|-----5-|-------|-------|---7-----|
A|-3-3---|-------|-------|-----5-3-|
E|-------|-------|-------|---------|

G|-----|-----|-----|-----|-----|-----|-----------|-----------|
D|-----|-----|-----|-----|-----|-----|---5-4-3-2-|-1-1-0-0---|
A|-2-2-|-1-1-|-0-0-|-5-5-|-----|-----|-----------|---------1-|
E|-----|-----|-----|-----|-5-5-|-4-4-|-3---------|-----------|


Verse

Chorus


Outro

G|-----------|---------|---|-----|-----|-----|-----|-----|---|
D|---5-4-3-2-|-1-1-0-0-|---|-----|-----|-----|-----|-----|---|
A|-----------|---------|---|-4-4-|-----|-5-5-|-----|-----|---|
E|-3---------|---------|-3-|-----|-5-5-|-----|-5-5-|-4-4-|-3-|

===============================================================================

comments
We did not receive enough feedback on this tab! Please rate:
print report bad tab
1 2 3 4 5
I want to post or [tab]
guest
You may want to rate the tab now too:
select rating
Please do not post tabs as comments. Select "correction" instead!