Oops, an error
Loading. Please wait.

Solitaire tab

version 1
version 1

Whole song

  • This is a Guitar Pro version transcribed into a re... Show more

Interactive

19 views 1 this week
no commentswrite comment
1 2 3 4 5
3 more votes to show rating
add to favorites
×
Save as Personal and add changes to this tab that will be seen only by you. Learn more ›
×
You can save this tab as Personal to edit and correct it or add notes. All changes will be seen only by you. Learn more »
launch autoscroll
font size
0
reset
how to read this tab
guitar tuner
edit
Autoscroll
slow
fast
+/-
esc
set tempo
stop
About this tab version
This is a Guitar Pro version transcribed into a regular tab format. Take a look at the original version for more info: https://tabs.ultimate-guitar.com/s/suzanne_vega/solitaire_guitar_pro.htm. Was this info helpful? Yes No
Title: Solitaire
Artist: Suzanne Vega
Album: Close-Up - Vol 3. States Of Being
Tempo: Andante moderato
Instructions: Capo on 2nd fret
Method: Fingerpicking

* Make sure to properly apply accentuation and staccato effects.

[Intro/Verse 1] (0:00)
(The first verse starts after the second repeat iteration)
e|----------------------------------------------------------------||
B|-----------2.---------------------------------------------------||
G|-----------------2>-------------0--------0----------------------||
D|--------2-----------2-----------2-----------4-------------------||
A|--0>----------------------3-----------(5)-----------------------||
E|----------------------------------------------------------------||
                                                                   |
e|----------------------------------------------------------------||
B|-----------2.---------------------------------------------------||
G|-----------------2>-------------0-----------0-------------------||
D|--------2-----------2-----------2-----------2-------------------||
A|--0>----------------------3-----------0h2-----------------------||
E|----------------------------------------------------------------||
                                                                   | x4
e|----------------------------------------------------------------||
B|-----------2.---------------------------------------------------||
G|-----------------2>-------------0--------0----------------------||
D|--------2-----------2-----------2-----------4-------------------||
A|--0>----------------------3-----------(5)-----------------------||
E|----------------------------------------------------------------||
                                                                   |
e|----------------------------------------------------------------||
B|-----------2.-------------2-------------------------------------||
G|-----------------2>-------2-------------------------------------||
D|--------2-----------------2-------------------------------------||
A|--0-----------------0-----0-------------------------------------||
E|----------------------------------------------------------------||

[Chorus] (0:40)
e|----------------------------------------------------------------|
B|----------------------------------------------------------------|
G|-----------1----------------------------------------------------|
D|-----------------2--------------0--------0----------------------|
A|--------2-----------2-----------2-----------4-------------------|
E|--0>----------------------3>----------(5)-----------------------|

e|----------------------------------------------------------------|
B|----------------------------------------------------------------|
G|-----------1--------------------0-----------0-------------------|
D|-----------------2--------------0-----------0-------------------|
A|--------2-----------2-------------------------------------------|
E|--0>----------------------3>---------0h2------------------------|

e|-----------------------------------------------------|----------|
B|-----------------------------------------------------|----------|
G|-----------1-----------------------------------------|---1.-----|
D|-----------------2--------------0--------0-----------|---2.-----|
A|--------2-----------2-----------2-----------4--------|----------|
E|--0>----------------------3>----------(5)------------|---0.-----|

[Verse 2] (0:50)
e|----------------------------------------------------------------||
B|-----------2.---------------------------------------------------||
G|-----------------2>-------------0--------0----------------------||
D|--------2-----------2-----------2-----------4-------------------||
A|--0>----------------------3-----------(5)-----------------------||
E|----------------------------------------------------------------||
                                                                   |
e|----------------------------------------------------------------||
B|-----------2.---------------------------------------------------||
G|-----------------2>-------------0-----------0-------------------||
D|--------2-----------2-----------2-----------2-------------------||
A|--0>----------------------3-----------0h2-----------------------||
E|----------------------------------------------------------------||
                                                                   | x3
e|----------------------------------------------------------------||
B|-----------2.---------------------------------------------------||
G|-----------------2>-------------0--------0----------------------||
D|--------2-----------2-----------2-----------4-------------------||
A|--0>----------------------3-----------(5)-----------------------||
E|----------------------------------------------------------------||
                                                                   |
e|----------------------------------------------------------------||
B|-----------2.-------------2-------------------------------------||
G|-----------------2>-------2-------------------------------------||
D|--------2-----------------2-------------------------------------||
A|--0-----------------0-----0-------------------------------------||
E|----------------------------------------------------------------||

[Chorus] (1:20)
e|----------------------------------------------------------------|
B|----------------------------------------------------------------|
G|-----------1----------------------------------------------------|
D|-----------------2--------------0--------0----------------------|
A|--------2-----------2-----------2-----------4-------------------|
E|--0>----------------------3>----------(5)-----------------------|

e|----------------------------------------------------------------|
B|----------------------------------------------------------------|
G|-----------1--------------------0-----------0-------------------|
D|-----------------2--------------0-----------0-------------------|
A|--------2-----------2-------------------------------------------|
E|--0>----------------------3>---------0h2------------------------|

e|-----------------------------------------------------|----------|
B|-----------------------------------------------------|----------|
G|-----------1-----------------------------------------|---1.-----|
D|-----------------2--------------0--------0-----------|---2.-----|
A|--------2-----------2-----------2-----------4--------|----------|
E|--0>----------------------3>----------(5)------------|---0.-----|

[Interlude] (1:30)
(Bass guitar plays a solo here)
e|----------------------------------------------------------------|
B|-----------2.---------------------------------------------------|
G|-----------------2>-------------0--------0----------------------|
D|--------2-----------2-----------2-----------4-------------------|
A|--0>----------------------3-----------(5)-----------------------|
E|----------------------------------------------------------------|

e|----------------------------------------------------------------|
B|-----------2.---------------------------------------------------|
G|-----------------2>-------------0-----------0-------------------|
D|--------2-----------2-----------2-----------2-------------------|
A|--0>----------------------3-----------0h2-----------------------|
E|----------------------------------------------------------------|

e|----------------------------------------------------------------|
B|-----------2.---------------------------------------------------|
G|-----------------2>-------------0--------0----------------------|
D|--------2-----------2-----------2-----------4-------------------|
A|--0>----------------------3-----------(5)-----------------------|
E|----------------------------------------------------------------|

e|----------------------------------------------------------------|
B|-----------2.-------------2-------------------------------------|
G|-----------------2>-------2-------------------------------------|
D|--------2-----------------2-------------------------------------|
A|--0-----------------0-----0-------------------------------------|
E|----------------------------------------------------------------|

[Chorus] (1:40)
e|----------------------------------------------------------------|
B|----------------------------------------------------------------|
G|-----------1----------------------------------------------------|
D|-----------------2--------------0--------0----------------------|
A|--------2-----------2-----------2-----------4-------------------|
E|--0>----------------------3>----------(5)-----------------------|

e|----------------------------------------------------------------|
B|----------------------------------------------------------------|
G|-----------1--------------------0-----------0-------------------|
D|-----------------2--------------0-----------0-------------------|
A|--------2-----------2-------------------------------------------|
E|--0>----------------------3>---------0h2------------------------|

e|-----------------------------------------------------|----------|
B|-----------------------------------------------------|----------|
G|-----------1-----------------------------------------|---1.-----|
D|-----------------2--------------0--------0-----------|---2.-----|
A|--------2-----------2-----------2-----------4--------|----------|
E|--0>----------------------3>----------(5)------------|---0.-----|

[Outro] (1:50)
(Bass guitar plays the same solo from interlude again)
e|----------------------------------------------------------------||
B|-----------2.---------------------------------------------------||
G|-----------------2>-------------0--------0----------------------||
D|--------2-----------2-----------2-----------4-------------------||
A|--0>----------------------3-----------(5)-----------------------||
E|----------------------------------------------------------------||
                                                                   |
e|----------------------------------------------------------------||
B|-----------2.---------------------------------------------------||
G|-----------------2>-------------0-----------0-------------------||
D|--------2-----------2-----------2-----------2-------------------||
A|--0>----------------------3-----------0h2-----------------------||
E|----------------------------------------------------------------||
                                                                   | x2
e|----------------------------------------------------------------||
B|-----------2.---------------------------------------------------||
G|-----------------2>-------------0--------0----------------------||
D|--------2-----------2-----------2-----------4-------------------||
A|--0>----------------------3-----------(5)-----------------------||
E|----------------------------------------------------------------||
                                                                   |
e|----------------------------------------------------------------||
B|-----------2.-------------2-------------------------------------||
G|-----------------2>-------2-------------------------------------||
D|--------2-----------------2-------------------------------------||
A|--0-----------------0-----0-------------------------------------||
E|----------------------------------------------------------------||


****************************

| h  - Hammer-on
| >  - Accentuated note
| .  - Staccato
| () - Ghost note

****************************
Suggest correction
Creating personal tab
Creating personal tab
You can edit any tab online and save it as your Personal.

You can edit, replace or remove any tab part or add personal notes – all changes will be seen only by you.

Personal tabs can be accessed anytime from any device, even offline.
Learn more »
Give kudos to tab author, rate the tab!
1 2 3 4 5
comments
print report bad tab
guest
You may want to rate the tab now too:
select rating
Wanna post a correction for this tab? Suggest correction