Oops, an error
Loading. Please wait.

Treblebass Chords

13 views 6 this week
no commentswrite comment
1 2 3 4 5
3 more votes to show rating
add to favorites
launch autoscroll
font size
0
reset
transpose
0
reset
display chords
guitar tuner
Autoscroll
slow
fast
+/-
esc
set tempo
stop
Help us to improve Ultimate-Guitar.com Take our survey!
×
Author
Difficulty
Capo
novice
3rd fret
CAPO 3

[Intro]

Intro strumming
    Em                        G
e|-------0--0--x-----------|-------3--3--x-----------|
B|-------0--0--x-----------|-------3--3--x-----------|
G|-------0--0--x-----------|-------0--0--x-----------|
D|-------2--2--x-----------|-------0--0--x-----------|
A|-------2--2--x-----------|-------2--2--x-----------|
E|---0---0--0--x-----------|---3---3--3--x-----------|
            V  (Mute)                 V  (Mute)    

Em                     G
  Kreni sa mnom zadnji put
                      Em
  Vjeruj mi daleko od mraka
                              G
  Bolje ćemo znati ništa nije teško


[Chorus 1]

     G           D
Naša lica još su lijepa
           Am
Zatvori mi oči
              B
Neka kraj nas jure
            Em
Nek se lome prsti
         B
Idemo na ples
             Em        B
I svijet je opet mlad


[Verse 1]
(Intro strumming)

       Em
I samo šuti

Gdje su bile riječi
              G
Kad nije bilo nade za nas
          Em
Samo dugi dani nestali u tami
                G
Gdje ništa nije važno


[Chorus 2]

       G
Raširi ruke
            D
Ruke su ti snažne
            Am
Upri iz sve snage
              B   (Riff 1)
Nek se cijedi znoj
         Em      
Nek koža pukne mi
         B
Idemo na ples
               Em       B
I svijet je opet mlad


[Riff 2]
   Em                B                 G               Am
e|----------------------------------|----------------------------------|
B|----------------------------------|----------------------------------|
G|----------------------------------|----------------------------------|   x2
D|----------------------------5-----|----------------------------5-----|
A|--/7--7--7--7--7-----7-5------7---|--/7--7--7--7--7-----7-5------7---|
E|-----------------6/7------7-------|-----------------6/7------7-------|


[Chorus 1]

       G           D
I naša lica još su lijepa
           Am
Zatvori mi oči
              B   (Riff 1)
Neka kraj nas jure
            Em
Nek se lome prsti
         B
Idemo na ples
             Em
I svijet je opet mlad


[Solo]
(Intro strumming)

N.C.
e|------------------------------------------------------------------10-------------|
B|--12-----13-12----13-12----13-12----13-12-----13-12-10-12-13--13-----13-12-10-12-|
G|------12-------12-------11-------12--------12------------------------------------|
D|---------------------------------------------------------------------------------|
A|---------------------------------------------------------------------------------|
E|---------------------------------------------------------------------------------|
N.C                                                                             G
e|----------------------------------------------------------------10----------10---|
B|-----13-12----13-12------13-12----13-12-----13-12-10-12-13--13-----13-12-13------|
G|--12-------12--------11--------12--------12--------------------------------------|
D|---------------------------------------------------------------------------------|
A|---------------------------------------------------------------------------------|
E|---------------------------------------------------------------------------------|
                                             Am     (Riff 1)                    Em
e|------12-10----12-10------12-10--------------10------------------10--------------|
B|--12--------12--------10--------13-12-13--13----13-12-10-13--13-----13-12-10-12--|
G|---------------------------------------------------------------------------------|
D|---------------------------------------------------------------------------------|
A|---------------------------------------------------------------------------------|
E|---------------------------------------------------------------------------------|
                                       Em
e|---------------------------------------|
B|-----13-12----13-12-----13-12----------|
G|--12-------12-----------------12-11-9--|
D|---------------------------------------|
A|---------------------------------------|
E|---------------------------------------|

[Riff 2]
   Em                B                 G               Am
e|----------------------------------|----------------------------------|
B|----------------------------------|----------------------------------|
G|----------------------------------|----------------------------------|   x2
D|----------------------------5-----|----------------------------5-----|
A|--/7--7--7--7--7-----7-5------7---|--/7--7--7--7--7-----7-5------7---|
E|-----------------6/7------7-------|-----------------6/7------7-------|


[Chorus 2]

       G
Raširi ruke
            D
Ruke su ti snažne
            Am
Upri iz sve snage
              B   (Riff 1)
Nek se cijedi znoj
         Em      
Nek koža pukne mi
         B
Idemo na ples
               Em
I svijet je opet mlad



[Verse 2]
(Intro strumming)

N.C.
Udahni zrak
N.C.
Koji dolazi
       Em
Sve je gotovo
         G
I mi smo spašeni


[Chorus 1]

       G           D
I naša lica još su lijepa
           Am
Zatvori mi oči
              B   (Riff 1)
Neka kraj nas jure
            Em
Nek se lome prsti
         B
Idemo na ples
             Em
I svijet je opet mlad
         B
Idemo na ples
             Em
I svijet je opet mlad
         B
Idemo na ples
             Em       Em
I svijet je opet mlad



[Riff 1] 

e|---1---4---7---10---|
B|---0---3---6---9----|
G|---1---4---7---10---|
D|---0---3---6---9----|
A|--------------------|
E|--------------------|

***********************************

| /   Slide-up

***********************************
Suggest correction
Give kudos to tab author, rate the tab!
1 2 3 4 5
comments
print report bad tab
guest
You may want to rate the tab now too:
select rating
Wanna post a correction for this tab? Suggest correction