Oops, an error
Loading. Please wait.

Ready For Noon Tab

by sval
4 views 1 this week
no commentswrite comment
1 2 3 4 5
3 more votes to show rating
add to favorites
launch autoscroll
font size
0
reset
how to read this tab
guitar tuner
Autoscroll
slow
fast
+/-
esc
set tempo
stop
Help us to improve Ultimate-Guitar.com Take our survey!
×
Author
Difficulty
Capo
intermediate
5th fret
About this tab version
My Version of my own song lol. Was this info helpful? Yes No
Tuning: EADGBe

e|-----------------------------------------------------------------------|
B|-----1---1-3-3/5-5-5/3-3-1---0---0-1-0-0-------------------------------|
G|-----0-----------------------0-----------0-----------------------------|
D|-----2-----------------------2-----------------------------------------|x2
A|-----3-----------------------2-----------------------------------------|
E|-----------------------------------------------------------------------|

e|-----------------------------------------------------------------------|
B|-----------------------------------------------------------------------|
G|--------0-------0------------------------------------------------------|
D|----0/2-----0/2---2/0------0/2-2----0/2-2-----2-0---------2------------|x2
A|----3-------3--------------3--------3-------------3-0-------0----------|
E|-----------------------------------------------------------------------|

e|-----------------------------------------------------------------------|
B|---------------------------------------------------0-1/0---------------|
G|----0----------------0-----2/0--------0-----------------2/0------------|
D|-------0/2--2-2---------2-----2/0-------0/2--2-2------------2/0--------|x2
A|--3-------------3-3-----------------3---------------------------3/2-3--|
E|-----------------------------------------------------------------------|

e|-----------------------------------------------------------0-----------|
B|---------0/1-------------0/1------------0/1------------0/1---3/1-------|
G|-------0-----2/0-------0-----2/0------0-----2/0------0-----------------|
D|-----0---------------0--------------0--------------0-------------------|x2
A|---3---------------3--------------3--------------3---------------------|
E|-----------------------------------------------------------------------|


************************************

| /  Slide up

************************************
Suggest correction
Give kudos to tab author, rate the tab!
1 2 3 4 5
comments
print report bad tab
guest
You may want to rate the tab now too:
select rating
Wanna post a correction for this tab? Suggest correction