Oops, an error
Loading. Please wait.

Whats Hidden There tab

4 views 1 this week
no commentswrite comment
1 2 3 4 5
3 more votes to show rating
add to favorites
×
Save as Personal and add changes to this tab that will be seen only by you. Learn more ›
×
You can save this tab as Personal to edit and correct it or add notes. All changes will be seen only by you. Learn more »
launch autoscroll
font size
0
reset
how to read this tab
guitar tuner
edit
Autoscroll
slow
fast
+/-
esc
set tempo
stop
(0:00)
e|----------------------------------|
B|----------------------------------|
G|----------------------------------|
D|-----6-------6-------4-------4----|
A|---7---7---7---7---5---5---5---5--|
E|-7-------7-------7-------7--------|

(0:37)
e|-----------------------------------------------------------------|
B|-----------------------------------------------------------------|
G|-----------------------------------------------------------------|
D|-----2-------2-------2-------2-------2-------2-------2-------2---|
A|---3---3---3---3---3---3---3---3---3---3---3---3---3---3---3---3-|
E|-5-------5-------3-------3-------2-------2-------1-------1-------|

(0:44)
e|----------------------------------|
B|----------------------------------|
G|----------------------------------|
D|-----6-------6-------4-------4----|
A|---7---7---7---7---5---5---5---5--|
E|-7-------7-------7-------7--------|

(0:51)
e|-------------------------------------------------------------------------------------------------|
B|-------------------------------------------------------------------------------------------------|
G|-------------------------------------------------------------------------------------------------|
D|-----6-------6-------6-------6-------6-------6-------6-------6-------6-------6-------4-------4---|
A|---7---7---7---7---7---7---7---7---7---7---7---7---7---7---7---7---6---6---6---6---4---4---4---4-|
E|-9-------9-------7-------7-------6-------6-------5-------5-------4-------4-------2-------2-------|

(1:01)
e|----------------------------------|
B|----------------------------------|
G|----------------------------------|
D|-----6-------6-------4-------4----|
A|---7---7---7---7---5---5---5---5--|
E|-7-------7-------7-------7--------|

(1:08)
e|-------------------------------------------------------------------------------------------------|
B|-------------------------------------------------------------------------------------------------|
G|-------------------------------------------------------------------------------------------------|
D|-----6-------6-------6-------6-------6-------6-------6-------6-------6-------6-------4-------4---|
A|---7---7---7---7---7---7---7---7---7---7---7---7---7---7---7---7---6---6---6---6---4---4---4---4-|
E|-9-------9-------7-------7-------6-------6-------5-------5-------4-------4-------2-------2-------|

(1:19)
e|----------------------------------|
B|----------------------------------|
G|----------------------------------|
D|-----6-------6-------4-------4----|
A|---7---7---7---7---5---5---5---5--|
E|-7-------7-------7-------7--------|

(1:36)
e|-----------------------------------------------------------------|
B|-----------------------------------------------------------------|
G|-----------------------------------------------------------------|
D|-----2-------2-------2-------2-------2-------2-------2-------2---|
A|---3---3---3---3---3---3---3---3---3---3---3---3---3---3---3---3-|
E|-5-------5-------3-------3-------2-------2-------1-------1-------|

(1:43)
e|----------------------------------|
B|----------------------------------|
G|----------------------------------|
D|-----6-------6-------4-------4----|
A|---7---7---7---7---5---5---5---5--|
E|-7-------7-------7-------7--------|

(1:54)
e|-----------------------------------------------------------------|
B|-----------------------------------------------------------------|
G|-----------------------------------------------------------------|
D|-----2-------2-------2-------2-------2-------2-------2-------2---|
A|---3---3---3---3---3---3---3---3---3---3---3---3---3---3---3---3-|
E|-5-------5-------3-------3-------2-------2-------1-------1-------|

(2:01)
e|----------------------------------|
B|----------------------------------|
G|----------------------------------|
D|-----6-------6-------4-------4----|
A|---7---7---7---7---5---5---5---5--|
E|-7-------7-------7-------7--------|

(2:08)
e|-------------------------------------------------------------------------------------------------|
B|-------------------------------------------------------------------------------------------------|
G|-------------------------------------------------------------------------------------------------|
D|-----6-------6-------6-------6-------6-------6-------6-------6-------6-------6-------4-------4---|
A|---7---7---7---7---7---7---7---7---7---7---7---7---7---7---7---7---6---6---6---6---4---4---4---4-|
E|-9-------9-------7-------7-------6-------6-------5-------5-------4-------4-------2-------2-------|

(2:18)
e|----------------------------------|
B|----------------------------------|
G|----------------------------------|
D|-----6-------6-------4-------4----|
A|---7---7---7---7---5---5---5---5--|
E|-7-------7-------7-------7--------|

(2:25)
e|-------------------------------------------------------------------------------------------------|
B|-------------------------------------------------------------------------------------------------|
G|-------------------------------------------------------------------------------------------------|
D|-----6-------6-------6-------6-------6-------6-------6-------6-------6-------6-------4-------4---|
A|---7---7---7---7---7---7---7---7---7---7---7---7---7---7---7---7---6---6---6---6---4---4---4---4-|
E|-9-------9-------7-------7-------6-------6-------5-------5-------4-------4-------2-------2-------|

(2:36)
e|----------------------------------|
B|----------------------------------|
G|----------------------------------|
D|-----6-------6-------4-------4----|
A|---7---7---7---7---5---5---5---5--|
E|-7-------7-------7-------7--------|

(2:53)
e|-----------------------------------------------------------------|
B|-----------------------------------------------------------------|
G|-----------------------------------------------------------------|
D|-----2-------2-------2-------2-------2-------2-------2-------2---|
A|---3---3---3---3---3---3---3---3---3---3---3---3---3---3---3---3-|
E|-5-------5-------3-------3-------2-------2-------1-------1-------|

(3:00)
e|----------------------------------|
B|----------------------------------|
G|----------------------------------|
D|-----6-------6-------4-------4----|
A|---7---7---7---7---5---5---5---5--|
E|-7-------7-------7-------7--------|

(3:10)
e|-----------------------------------------------------------------|
B|-----------------------------------------------------------------|
G|-----------------------------------------------------------------|
D|-----2-------2-------2-------2-------2-------2-------2-------2---|
A|---3---3---3---3---3---3---3---3---3---3---3---3---3---3---3---3-|
E|-5-------5-------3-------3-------2-------2-------1-------1-------|

(3:17)
e|----------------------------------|
B|----------------------------------|
G|----------------------------------|
D|-----6-------6-------4-------4----|
A|---7---7---7---7---5---5---5---5--|
E|-7-------7-------7-------7--------|

(3:24)
e|-------------------------------------------------------------------------------------------------|
B|-------------------------------------------------------------------------------------------------|
G|-------------------------------------------------------------------------------------------------|
D|-----6-------6-------6-------6-------6-------6-------6-------6-------6-------6-------4-------4---|
A|---7---7---7---7---7---7---7---7---7---7---7---7---7---7---7---7---6---6---6---6---4---4---4---4-|
E|-9-------9-------7-------7-------6-------6-------5-------5-------4-------4-------2-------2-------|

(3:34)
e|----------------------------------|
B|----------------------------------|
G|----------------------------------|
D|-----6-------6-------4-------4----|
A|---7---7---7---7---5---5---5---5--|
E|-7-------7-------7-------7--------|

(3:41)
e|-------------------------------------------------------------------------------------------------|
B|-------------------------------------------------------------------------------------------------|
G|-------------------------------------------------------------------------------------------------|
D|-----6-------6-------6-------6-------6-------6-------6-------6-------6-------6-------4-------4---|
A|---7---7---7---7---7---7---7---7---7---7---7---7---7---7---7---7---6---6---6---6---4---4---4---4-|
E|-9-------9-------7-------7-------6-------6-------5-------5-------4-------4-------2-------2-------|

(3:51)
e|----------------------------------|
B|----------------------------------|
G|----------------------------------|
D|-----6-------6-------4-------4----|
A|---7---7---7---7---5---5---5---5--|
E|-7-------7-------7-------7--------|
Suggest correction
Creating personal tab
Creating personal tab
You can edit any tab online and save it as your Personal.

You can edit, replace or remove any tab part or add personal notes – all changes will be seen only by you.

Personal tabs can be accessed anytime from any device, even offline.
Learn more »
Give kudos to tab author, rate the tab!
1 2 3 4 5
comments
print report bad tab
guest
You may want to rate the tab now too:
select rating
Wanna post a correction for this tab? Suggest correction