Oops, an error
Loading. Please wait.

Naivitet Bass Tab

408 views 1 this week
no commentswrite comment
1 2 3 4 5
please rate
add to favorites
launch autoscroll
font size
0
reset
guitar tuner
Autoscroll
slow
fast
+/-
esc
set tempo
stop
Help us to improve Ultimate-Guitar.com Take our survey!
×
Author
-------------------------------------------------------------------------------
		           Naivitet - Svenska Akademien
-------------------------------------------------------------------------------

This is played through the whole song (except on the verses)

                                                      |-3-|
    Q  E. S Q  E. S   Q  E. S Q  E. S   H.      E E   Q Q Q  Q  Q
||------------------|-----------------|-------------|--------------|
||o------------5----|-5--2-------2----|-------------|--------------|
||o-----------------|---------5-------|-0-------0-2-|-3-3-3--2-----|
||-----0----0-------|-----------------|-------------|-----------3--|


  Q  E. S Q  E. S   Q  E. S Q  E. S   H.      E E   H    H     4x
|-----------------|-----------------|-------------|------------||
|------------5----|-5--2-------2----|-------------|-----------o||
|-----------------|---------5-------|-0-----------|------2----o||
|----0----0-------|-----------------|---------3-2-|-3----------||



This is played on the verses:

  Q  E E H      E E E E Q  Q    +Q   E. S H      E E Q  H
|-------------|---------------|----------------|-------------|
|----5-4-2----|-5-4-2-0-2-----|----------------|-------------|
|-------------|---------------|------0----0----|-3-2-3--2----|
|-------------|------------3--|-(3)------------|-------------|


  Q E E H      E E E E Q  Q    +Q   E. S H      E E E E H
|------------|---------------|----------------|-------------|
|---5-4-2----|-5-4-2-0-2-----|----------------|-------------|
|------------|---------------|------0----0----|---------2---|
|------------|------------3--|-(3)------------|-3-3-3-------|
Suggest correction
Give kudos to tab author, rate the tab!
1 2 3 4 5
comments
print report bad tab
guest
You may want to rate the tab now too:
select rating
Wanna post a correction for this tab? Suggest correction