Oops, an error
Loading. Please wait.

Vakna Bass Tab

669 views 1 this week
1 commentread comment
1 2 3 4 5
2 more votes to show rating
add to favorites
launch autoscroll
font size
0
reset
guitar tuner
Autoscroll
slow
fast
+/-
esc
set tempo
stop
Help us to improve Ultimate-Guitar.com Take our survey!
×
Author
Difficulty
novice
Not har at all, just repete this over and over again xD


G|---------------------------------------------------------------------------|
D|---------------------------------------------------------------------------|
A|------0-0------3-3-0-------------------------------------------------------|  
E|--2-2--2-3-2-0-------------------------------------------------------------|

Tabed by: Igam93
Suggest correction
Give kudos to tab author, rate the tab!
1 2 3 4 5
comments
print report bad tab
1 comment total.
0 reply
LexxieOwO 10 Jul 10, 2013 07:43 AM

It's wrong m8


G|--------------------------------------------------------------------|
D|--------------------------------------------------------------------|
A|----------------0-----------4---4-0---------------------------------|
E|----2---2---2-2---2-4-2-0-------------------------------------------|


And then just repeat it all. :)

guest
You may want to rate the tab now too:
select rating
Wanna post a correction for this tab? Suggest correction