Oops, an error
Loading. Please wait.

These Hours Of Despair guitar pro

3,928 views 1 this week
2 commentsread comments
1 2 3 4 5
x 7
add to favorites
guitar tuner
Autoscroll
slow
fast
+/-
esc
set tempo
stop
File Format
Filesize
Instruments
.gp5
131 Kb
rhythm_guitars, lead_guitars, basses, percussions, keyboards #3
"These Hours Of Despair"
demo version
Play now

or get full version for Free

×
Get full version now!
Learn and play this song
in Tab Pro
Try for free

or get $10 off Welcome Bonus

Get welcome bonus
Get access to Tab Pro version of “These Hours Of Despair”!
Tab Pro is a premium guitar tab service, available on PC, Mac, iOS and Android
TRY FOR FREE
Your download will start in 7 seconds
×
Like this song? We have more! Follow us on Facebook for daily tips, lessons and other guitar-related content.
To download “These Hours Of Despair” Guitar Pro tab click button below
Please note that you must have Guitar Pro software installed on your
computer in order to view this file.
Suggest correction
comments
report bad tab
2 comments total.
+1 reply
majuri 309 Nov 04, 2010 04:18 AM

Good tab but need some corrections
Intro:
D|--------------------------------------------------------|
A|-------------------------------------------------6------|
F|-----------------------------------------------8---8----|
C|---------------------------------------------8-------8--|
G|---------12-10-12-------13-12-13-----8-----6------------|
C|-0-0-0-0----------0-0-0----------0-0---0-0--------------|
|let ring---|

D|--------------------------------------------------------|
A|--------------------------------------------------------|
F|-----------------------------------------------------2--|
C|---------------------------------------------------4----|
G|---------12-10-12-------13-12-13-----8-------4---4------|
C|-0-0-0-0----------0-0-0----------0-0---0-0-4---4--------|
|let ring---|

0 reply
majuri 309 Nov 04, 2010 04:20 AM

****! forget the let ring stuff, just play

guest