Oops, an error
Loading. Please wait.

Are You Swimming In Her Pools chords

322 views 1 this week
no commentswrite comment
1 2 3 4 5
3 more votes to show rating
add to favorites
×
Save as Personal and add changes to this tab that will be seen only by you. Learn more ›
×
You can save this tab as Personal to edit and correct it or add notes. All changes will be seen only by you. Learn more »
launch autoscroll
font size
0
reset
transpose
0
reset
simplify chords
display chords
guitar tuner
edit
Autoscroll
slow
fast
+/-
esc
set tempo
stop
Author
Strumming
There is no strumming pattern for this song yet. and get +5 IQ
This song was tabbed by "insterstellarburst" over on indieguitartabs.com .
All credit goes to the original tabber.
I just wanted to put it in a format that was easier for me to read!

Intro
e--------------------------------------------------
b--------------------------------------------------
g--2-2---2-2---2-2---2-2---2-2---2-2---2-2---2-2---
d--3—-3--3—-3--3—-3--3—-3--3—-3--3—-3--3—-3--3—-3--
a--------------------------------------------------
E--------------------------------------------------


e---------------------------------------------------
b---------------------------------------------------
g--2-2---2-2---2-2---2-2----------------------------
d--3--3--1--1--0--0--------5-5---5-5---5-5/--3-3----
a---—--—--—--—--—--—-3—-3—-1—-1--1—-1--1—-1--1—-1—--
E---------------------------------------------------
Will you be swimming in her pools?
Are you swimming in her pools?
Are you swimming in her pools?

Am       Dm
Oh ah ah oh
Am       Dm
Oh ah ah oh

e---------------------------------------------------
b---------------------------------------------------
g--2-2---2-2---2-2---2-2----------------------------
d--3--3--1--1--0--0--------5-5---5-5---5-5/--3-3----
a---—--—--—--—--—--—-3—-3—-1—-1--1—-1--1—-1--1—-1—--
E---------------------------------------------------
Will you be brushing off her snow?
Will you be brushing off her snow?
Will you be brushing off her snow?

Am                     Dm
How can you stand the cold?
Am                     Dm
How can you stand the cold?

                F                   C
And if you're still there when it snows
               Dm                Am
Will you still be there when it goes?
               G
Will you still be there when it's time

To fill the pools again?

         Am       G     F
And will you be coming back here?
Dm            G     F
Will you be coming back here?
Dm            G     F
Will you be coming back here?

Dm G Dm

e---------------------------------------------------
b---------------------------------------------------
g--2-2---2-2---2-2---2-2----------------------------
d--3--3--1--1--0--0--------5-5----------------------
a---—--—--—--—--—--—-3—-3—-1—-1------------------—--
E---------------------------------------------------
Are you running up the river banks
And tracing them like long fingers...

e---------------------------------------------------
b---------------------------------------------------
g--2-2---2-2---2-2---2-2----------------------------
d--3--3--1--1--0--0--------5-5---5-5---5-5/--3-3----
a---—--—--—--—--—--—-3—-3—-1—-1--1—-1--1—-1--1—-1—--
E---------------------------------------------------
Are you running up her river banks
And navigating long fingers of a hand

Am                      Dm
'Cause fingers make the hand
Am                   Dm
And rivers make the land

e---------------------------------------------------
b---------------------------------------------------
g--2-2---2-2---2-2---2-2----------------------------
d--3--3--1--1--0--0--------5-5---5-5---5-5/--3-3----
a---—--—--—--—--—--—-3—-3—-1—-1--1—-1--1—-1--1—-1—--
E---------------------------------------------------
Is she cradling you well?
Oh is she cradling you well?
Because if I call you baby, she should cradle you well

Am                Dm
Does she fucking know?
Am                Dm
Does she fucking know?

              F          C                Dm       
And how the lines that appear around your eyes
               Am
When you are smiling
      G
Are revered for the way in which they always reappear

        Am       G     F
Oh will you be coming back here?
Dm            G     F
Will you be coming back here?
Dm            G     F         Dm
Will you be coming back here?

Am Dm Bb Bb 
Am Dm Dm Bb
Am Dm Bb Bb

Bm                     E
I hope you find your mother
Bm                     E
I hope you find your mother there
Bm                     E      F    C  Dm  Am   G
I hope you find your mother there-ere-ere-ere

G                    Bm               D        E5
You hit the ground running with a terrifying speed
               G         Bm           D      E5       
But it's the ground you cover that terrifies me
     G      Bm               D        E5
And brace yourself for the sound of bleeding

E5
'Cause bleeding hearts bleed

Bleeding hearts bleed

Bleeding hearts bleed

       C
And "please" is not a word that I ever say quietly...

A C#m G Bm F   Am Dm Bb   Bm   E

e---------------------------------------------------
b---------------------------------------------------
g--2-2---2-2---2-2---2-2----------------------------  x2
d--3--3--1--1--0--0--------5-5---5-5---5-5/--3-3----  x2
a---—--—--—--—--—--—-3—-3—-1—-1--1—-1--1—-1--1—-1—--
E---------------------------------------------------  
You said your love was fierce, fierce, fierce
You said your love was fierce, it's true

F
C              Dm       Am               G      Dm  
You said your love was fierce, fierce, fierce
C              Am       Bb            F
You said your love was fierce and I agree with you 

F    Am            C            Dm         Bb           Dm
His child of the future is the child I am seeing, too
C              Am       Bb            F
You said your love was fierce and I agree with you 
F      Am            C             Dm          Bb          Dm
These tigers of the heart are the tigers I am seeing, too
C              Am       Bb            F            FFFFFFF
You said your love was fierce and I agree with you 



*Just a note, his tab gives you the slide at the end of the fingerpicking section,
 but I play it like this just because it's easier:

e---------------------------------------------------
b---------------------------------------------------
g--2-2---2-2---2-2---2-2---0-0---0-0---0-0----------
d--3--3--1--1--0--0--------------------------3-3----
a---—--—--—--—--—--—-3—-3—-1—-1--1—-1--1—-1--1—-1—--
E---------------------------------------------------
Suggest correction
Creating personal tab
Creating personal tab
You can edit any tab online and save it as your Personal.

You can edit, replace or remove any tab part or add personal notes – all changes will be seen only by you.

Personal tabs can be accessed anytime from any device, even offline.
Learn more »
Give kudos to tab author, rate the tab!
1 2 3 4 5
comments
print report bad tab
guest
You may want to rate the tab now too:
select rating
Wanna post a correction for this tab? Suggest correction