Oops, an error
Loading. Please wait.

Screen Shot Bass Tab

295 views 33 this week
1 commentread comment
1 2 3 4 5
x 3
add to favorites
launch autoscroll
font size
0
reset
guitar tuner
Autoscroll
slow
fast
+/-
esc
set tempo
stop
Help us to improve Ultimate-Guitar.com Take our survey!
×
Author
Difficulty
intermediate
This is the studio version of the song (https://www.youtube.com/watch?v=x8fG79rn9m4 
keep in mind this is in 6/8 timing but the bass part is slightly swung
Really cool song, quite repetitive but you have to pay close attention to the small changes

[Intro]

G|-------------------------------------------------------------------------------------------------|
D|-0--0-12h13p13-0-0--0-12h13p13-0-0--0-12h13p13-0-0--0-12h13p13-0-0--0-12h13p13-0-0--0-12h13p13---|
A|-------------------------------------------------------------------------------------------------|
E|-------------------------------------------------------------------------------------------------|

G|------------------------------------------------------------------------------------------------|
D|-0-0--0-12h13p13-0-0-12-0-12/13-0--0-12h13p13-0-0--0-12h13p13-0-0--0-12h13p13-0-0--0-12h13p13---|
A|------------------------------------------------------------------------------------------------|
E|------------------------------------------------------------------------------------------------|

G|-----------------------------------------------------12-------------|
D|--0--0-12h13p13-0-0--0-12h13p13-0-0--0-12h13p13-0-0----0-13-0-12----|
A|--------------------------------------------------------------------|
E|--------------------------------------------------------------------|

G|-----------------------------------------------------12-------------|
D|--0--0-12h13p13-0-0--0-12h13p13-0-0--0-12h13p13-0-0----0-13-0-12----|
A|--------------------------------------------------------------------|
E|--------------------------------------------------------------------|

G|-----------------------------------------------------12-------------|
D|--0--0-12h13p13-0-0--0-12h13p13-0-0--0-12h13p13-0-0----0-13-0-12----|
A|--------------------------------------------------------------------|
E|--------------------------------------------------------------------|

G|-----------------------------------------------------12-------------|
D|--0--0-12h13p13-0-0--0-12h13p13-0-0--0-12h13p13-0-0----0-13-0-12----|
A|--------------------------------------------------------------------|
E|--------------------------------------------------------------------|

G|--------------------------------------------------------7------|
D|--0--0-12h13p13-0-0--0-12h13p13-0-0--0-12h13p13-0-0-7-8---8-7--|
A|---------------------------------------------------------------|
E|---------------------------------------------------------------|

G|-----------------------------------------------------12-------------|
D|--0--0-12h13p13-0-0--0-12h13p13-0-0--0-12h13p13-0-0----0-13-0-12----|
A|--------------------------------------------------------------------|
E|--------------------------------------------------------------------|

G|----------------------------------------------------------------|
D|--0--0-12h13p13-0-0--0-12h13p13-0-0--0-12h13p13-0-0-7-x-8-x-7---|
A|----------------------------------------------------------------|
E|----------------------------------------------------------------|

G|-----------------------------------------------------12-------------|
D|--0--0-12h13p13-0-0--0-12h13p13-0-0--0-12h13p13-0-0----0-13-0-12----|
A|--------------------------------------------------------------------|
E|--------------------------------------------------------------------|

G|----------------------------------------------------7-x-8-x-8---|
D|--0--0-12h13p13-0-0--0-12h13p13-0-0--0-12h13p13-0-0-------------|
A|----------------------------------------------------------------|
E|----------------------------------------------------------------|

G|-----------------------------------------------------12-------------|
D|--0--0-12h13p13-0-0--0-12h13p13-0-0--0-12h13p13-0-0----0-13-0-12----|
A|--------------------------------------------------------------------|
E|--------------------------------------------------------------------|

G|------------------------------------------------------------7---|
D|--0--0-12h13p13-0-0--0-12h13p13-0-0--0-12h13p13-0-0-7-x-8-x-----|
A|----------------------------------------------------------------|
E|----------------------------------------------------------------|

G|----------------------------------------------------7-x-8-x-8---|
D|--0--0-12h13p13-0-0--0-12h13p13-0-0--0-12h13p13-0-0-------------|
A|----------------------------------------------------------------|
E|----------------------------------------------------------------|

G|-----------------------------------------------------12-------------|
D|--0--0-12h13p13-0-0--0-12h13p13-0-0--0-12h13p13-0-0----0-13-0-12----|
A|--------------------------------------------------------------------|
E|--------------------------------------------------------------------|

G|--------------------------------------------------------------------|
D|--0--0-12h13p13-0-0--0-12h13p13-0-0--0-12h13p13-0-0--0-12h13p13-0---|
A|--------------------------------------------------------------------|
E|--------------------------------------------------------------------|

G|--------------------------------------------------------7------|
D|--0--0-12h13p13-0-0--0-12h13p13-0-0--0-12h13p13-0-0-7-8---8-7--|
A|---------------------------------------------------------------|
E|---------------------------------------------------------------|

[Verse]

1:31 - Vocals Come In

G|--------------------------------------------------------------------|
D|--0--0-12h13p13-0-0--0-12h13p13-0-0--0-12h13p13-0-0--0-12h13p13-0---|
A|--------------------------------------------------------------------|
E|--------------------------------------------------------------------|

G|-----------------------------------------------------12-------------|
D|--0--0-12h13p13-0-0--0-12h13p13-0-0--0-12h13p13-0-0----0-13-0-12----|
A|--------------------------------------------------------------------|
E|--------------------------------------------------------------------|

G|--------------------------------------------------------------------|
D|--0--0-12h13p13-0-0--0-12h13p13-0-0--0-12h13p13-0-0--0-12h13p13-0---|
A|--------------------------------------------------------------------|
E|--------------------------------------------------------------------|

G|----------------------------------------------------7---8---7--|
D|--0--0-12h13p13-0-0--0-12h13p13-0-0--0-12h13p13-0-0---0---0----|
A|---------------------------------------------------------------|
E|---------------------------------------------------------------|

G|------------------------------------------------------------7---|
D|--0--0-12h13p13-0-0--0-12h13p13-0-0--0-12h13p13-0-0-7-x-8-x-----|
A|----------------------------------------------------------------|
E|----------------------------------------------------------------|

G|----------------------------------------------------7-x---------|
D|--0--0-12h13p13-0-0--0-12h13p13-0-0--0-12h13p13-0-0-----8-x-7---|
A|----------------------------------------------------------------|
E|----------------------------------------------------------------|

G|-----------------------------------------------------12-------------|
D|--0--0-12h13p13-0-0--0-12h13p13-0-0--0-12h13p13-0-0----0-13-0-12----|
A|--------------------------------------------------------------------|
E|--------------------------------------------------------------------|

G|-----------------------------------------------------12-------------|
D|--0--0-12h13p13-0-0--0-12h13p13-0-0--0-12h13p13-0-0----0-13-0-12----|
A|--------------------------------------------------------------------|
E|--------------------------------------------------------------------|

[Bridge]

Instrumental Bridge 2:12

G|-----------------------------------------------------12-------------|
D|--0--0-12h13p13-0-0--0-12h13p13-0-0--0-12h13p13-0-0----0-13-0-12----|
A|--------------------------------------------------------------------|
E|--------------------------------------------------------------------|

G|-----------------------------------------------------12-------------|
D|--0--0-12h13p13-0-0--0-12h13p13-0-0--0-12h13p13-0-0----0-13-0-12----|
A|--------------------------------------------------------------------|
E|--------------------------------------------------------------------|

G|--------------------------------------------------------7------|
D|--0--0-12h13p13-0-0--0-12h13p13-0-0--0-12h13p13-0-0-7-8---8-7--|
A|---------------------------------------------------------------|
E|---------------------------------------------------------------|

G|----------------------------------------------------12--12--12--|
D|--0--0-12h13p13-0-0--0-12h13p13-0-0--0-12h13p13-0-0-------------|
A|----------------------------------------------------------------|
E|----------------------------------------------------------------|

G|----------------------------------------------------7---8---8--|
D|--0--0-12h13p13-0-0--0-12h13p13-0-0--0-12h13p13-0-0---0---0----|
A|---------------------------------------------------------------|
E|---------------------------------------------------------------|

G|-----------------------------------------------------------------------------------------------------|
D|--0--0-12h13p13-0-0--0-12h13p13-0-0--0-12h13p13-0-0--0-12h13p13-0-0--0-12h13p13-0-0--0-12h13p13-0----|
A|-----------------------------------------------------------------------------------------------------|
E|-----------------------------------------------------------------------------------------------------|

G|-----------------------------------------------------------------------------------------------------|
D|--0--0-12h13p13-0-0--0-12h13p13-0-0--0-12h13p13-0-0--0-12h13p13-0-0--0-12h13p13-0-0--0-12h13p13-0----|
A|-----------------------------------------------------------------------------------------------------|
E|-----------------------------------------------------------------------------------------------------|

G|----------------------------------------------------7---8---8----|
D|--0--0-12h13p13-0-0--0-12h13p13-0-0--0-12h13p13-0-0---0---0------|
A|-----------------------------------------------------------------|
E|-----------------------------------------------------------------|

G|----------------------------------------------------7---8---8----|
D|--0--0-12h13p13-0-0--0-12h13p13-0-0--0-12h13p13-0-0---0---0------|
A|-----------------------------------------------------------------|
E|-----------------------------------------------------------------|

[Verse]

3:02 - Vocals Come Back In

G|-----------------------<12>------------------------<12>----|
D|--0--0-12h13p13-0-0--0--------0--0-12h13p13-0-0--0---------|
A|-----------------------------------------------------------|
E|-----------------------------------------------------------|

G|-----------------------<12>----------------------12---12---12--|
D|--0--0-12h13p13-0-0--0--------0--0-12h13p13-0-0-----0----0-----|
A|---------------------------------------------------------------|
E|---------------------------------------------------------------|

G|-----------------------<12>----------------------12---12---12--|
D|--0--0-12h13p13-0-0--0--------0--0-12h13p13-0-0-----0----0-----|
A|---------------------------------------------------------------|
E|---------------------------------------------------------------|

G|-----------------------<12>---------------------7---7------|
D|--0--0-12h13p13-0-0--0--------0--0-12h13p13-0-0---0---0-x--|
A|-----------------------------------------------------------|
E|-----------------------------------------------------------|

G|----------------------------------------------------7---7---8----|
D|--0--0-12h13p13-0-0--0-12h13p13-0-0--0-12h13p13-0-0---0---0------|
A|-----------------------------------------------------------------|
E|-----------------------------------------------------------------|

G|----------------------------------------------------12---12---13---|
D|--0--0-12h13p13-0-0--0-12h13p13-0-0--0-12h13p13-0-0----0----0------|
A|-------------------------------------------------------------------|
E|-------------------------------------------------------------------|

G|----------------------------------------------------12--12--13--|
D|--0--0-12h13p13-0-0--0-12h13p13-0-0--0-12h13p13-0-0-------------|
A|----------------------------------------------------------------|
E|----------------------------------------------------------------|

G|----------------------------------------------------12--12--12--|
D|--0--0-12h13p13-0-0--0-12h13p13-0-0--0-12h13p13-0-0-------------|
A|----------------------------------------------------------------|
E|----------------------------------------------------------------|

[Bridge]

Instrumental Bridge 3:42

G|-----------------------<12>----------------------12---12---12--|
D|--0--0-12h13p13-0-0--0--------0--0-12h13p13-0-0-----0----0-----|
A|---------------------------------------------------------------|
E|---------------------------------------------------------------|

G|-----------------------<12>----------------------12---12---12--|
D|--0--0-12h13p13-0-0--0--------0--0-12h13p13-0-0-----0----0-----|
A|---------------------------------------------------------------|
E|---------------------------------------------------------------|

G|-----------------------<12>----------------------12---12---12--|
D|--0--0-12h13p13-0-0--0--------0--0-12h13p13-0-0-----0----0-----|
A|---------------------------------------------------------------|
E|---------------------------------------------------------------|

G|-----------------------<12>----------------------12---12---12--|
D|--0--0-12h13p13-0-0--0--------0--0-12h13p13-0-0-----0----0-----|
A|---------------------------------------------------------------|
E|---------------------------------------------------------------|

G|--------------------------------------------------------7------|
D|--0--0-12h13p13-0-0--0-12h13p13-0-0--0-12h13p13-0-0-7-8---8-7--|
A|---------------------------------------------------------------|
E|---------------------------------------------------------------|

G|------------------------------------------------------------7---|
D|--0--0-12h13p13-0-0--0-12h13p13-0-0--0-12h13p13-0-0-7-x-8-x-----|
A|----------------------------------------------------------------|
E|----------------------------------------------------------------|

G|----------------------------------------------------12--12--12--|
D|--0--0-12h13p13-0-0--0-12h13p13-0-0--0-12h13p13-0-0-------------|
A|----------------------------------------------------------------|
E|----------------------------------------------------------------|

G|-----------------------<12>----------------------12---12---12--|
D|--0--0-12h13p13-0-0--0--------0--0-12h13p13-0-0-----0----0-----|
A|---------------------------------------------------------------|
E|---------------------------------------------------------------|

G|----------------------------------------------------7---8---7----|
D|--0--0-12h13p13-0-0--0-12h13p13-0-0--0-12h13p13-0-0---0---0------|
A|-----------------------------------------------------------------|
E|-----------------------------------------------------------------|

G|----------------------------------------------------7---8---7----|
D|--0--0-12h13p13-0-0--0-12h13p13-0-0--0-12h13p13-0-0---0---0------|
A|-----------------------------------------------------------------|
E|-----------------------------------------------------------------|

G|--------------------------------------------------------------|
D|--0--0-12h13p13-0-0--0-12h13p13-0-0--0-12h13p13-0-0--0-8-0-7--|
A|--------------------------------------------------------------|
E|--------------------------------------------------------------|

G|------------------------------------------------------------7---|
D|--0--0-12h13p13-0-0--0-12h13p13-0-0--0-12h13p13-0-0-8-0-7-0-----|
A|----------------------------------------------------------------|
E|----------------------------------------------------------------|

[Verse]

Vocals Come Back In - 4:41

G|------<12>-------------------------<12>---------12-----12--|
D|-0--0------0-0--0--12h13p12-0-0--0------0-0--0------0------|
A|-----------------------------------------------------------|
E|-----------------------------------------------------------|

G|------<12>-------------------------<12>---------------------|
D|-0--0------0-0--0--12h13p12-0-0--0------0-0--12/13-0-13\12--|
A|------------------------------------------------------------|
E|------------------------------------------------------------|

G|------<12>-------------------------<12>-----12---12---12---|
D|-0--0------0-0--0--12h13p12-0-0--0------0-0----0----0------|
A|-----------------------------------------------------------|
E|-----------------------------------------------------------|

G|------<12>-------------------------<12>-------------------------|
D|-0--0------0-0--0--12h13p12-0-0--0------0-0--12/13-0-13\12--12--|
A|----------------------------------------------------------------|
E|----------------------------------------------------------------|

[Bridge] 

Instrumental Bridge Begins at 5:02

G|------<12>-------------------------<12>-----7---8---7---|
D|-0--0------0-0--0--12h13p12-0-0--0------0-0---0---0-----|
A|--------------------------------------------------------|
E|--------------------------------------------------------|

G|------<12>-------------------------<12>--------------------|
D|-0--0------0-0--0--12h13p12-0-0--0------0-0--0--12--13--0--|
A|-----------------------------------------------------------|
E|-----------------------------------------------------------|

G|------<12>-------------------------<12>------------------------|
D|-0--0------0-0--0--12h13p12-0-0--0------0-0--0--13-0-12-0-12---|
A|---------------------------------------------------------------|
E|---------------------------------------------------------------|

G|----------------------------------------------------7---7/8-8----|
D|--0--0-12h13p13-0-0--0-12h13p13-0-0--0-12h13p13-0-0---0----------|
A|-----------------------------------------------------------------|
E|-----------------------------------------------------------------|

G|--------------------------------------------------------7------|
D|--0--0-12h13p13-0-0--0-12h13p13-0-0--0-12h13p13-0-0-7-8---8-7--|
A|---------------------------------------------------------------|
E|---------------------------------------------------------------|

G|----------------------------------------------------7-----------|
D|--0--0-12h13p13-0-0--0-12h13p13-0-0--0-12h13p13-0-0---0-8-0-7---|
A|----------------------------------------------------------------|
E|----------------------------------------------------------------|

[Verse]

Singing Comes Back In - 5:30

G|------<12>-------------------------<12>-----12---12---12---|
D|-0--0------0-0--0--12h13p12-0-0--0------0-0----0----0------|
A|-----------------------------------------------------------|
E|-----------------------------------------------------------|

G|------<12>-------------------------<12>-----12---12---12---|
D|-0--0------0-0--0--12h13p12-0-0--0------0-0----0----0------|
A|-----------------------------------------------------------|
E|-----------------------------------------------------------|

G|------<12>-------------------------<12>-----12---12---12---|
D|-0--0------0-0--0--12h13p12-0-0--0------0-0----0----0------|
A|-----------------------------------------------------------|
E|-----------------------------------------------------------|

G|------<12>-------------------------<12>-----12---12---12---|
D|-0--0------0-0--0--12h13p12-0-0--0------0-0----0----0------|
A|-----------------------------------------------------------|
E|-----------------------------------------------------------|

G|------<12>-------------------------<12>-----12---12---12---|
D|-0--0------0-0--0--12h13p12-0-0--0------0-0----0----0------|
A|-----------------------------------------------------------|
E|-----------------------------------------------------------|

G|------<12>-------------------------<12>-----12---12---12---|
D|-0--0------0-0--0--12h13p12-0-0--0------0-0----0----0------|
A|-----------------------------------------------------------|
E|-----------------------------------------------------------| 

G|-----------------------7------------<12>---------7-------------|
D|-0--0-12h13p13-0-0-7-8---8-7--0--0--------0--0-8---8-7-0-------|
A|---------------------------------------------------------------|
E|---------------------------------------------------------------|

G|----------------------------------------------------12--12--12--|
D|--0--0-12h13p13-0-0--0-12h13p13-0-0--0-12h13p13-0-0-------------|
A|----------------------------------------------------------------|
E|----------------------------------------------------------------|

G|----------------------------------------------------------------------------------7-----7------|
D|--0--0-12h13p13-0-0--0-12h13p13-0-0--0-12h13p13-0-0--0-12h13p13-0-0--0-12h13p13-0---0-0---0-0--|
A|-----------------------------------------------------------------------------------------------|
E|-----------------------------------------------------------------------------------------------|

G|-----------------7-----7------|
D|-0-0-12h13p12--0---0-0---0-0--|
A|------------------------------|
E|------------------------------|

[Outro]

Outro Begins at 6:20

G|-------<12>--|
D|-0--0--------|
A|-------------| Repeat this until the end
E|-------------|


************************************

| <>  natural harmonic
| x   Dead note
| g   Grace note
| (n) Ghost note
| h   Hammer-on
| p   Pull-off
| r   Release
| >   Accented note
| t   Tapping
| b   Bend
| br  Bend release
| pb  Pre-bend
| pbr Pre-bend release
| /   Slide up
| \   Slide down
| ~   Vibrato
| s   Slap
| P   Pop
| PM  Palm mute
| TR  Trill
| N   Tremolo

************************************
Suggest correction
Give kudos to tab author, rate the tab!
1 2 3 4 5
comments
print report bad tab
1 comment total.
+1 reply
lollers22 10 Oct 09, 2016 10:02 PM

Great tab! thanks

guest
You may want to rate the tab now too:
select rating
Wanna post a correction for this tab? Suggest correction