Oops, an error
Loading. Please wait.

Dont You Worry Child intro tab

version 1
version 1

Intro

Interactive

8,129 views 15 this week
2 commentsread comments
1 2 3 4 5
2 more votes to show rating
add to favorites
×
Save as Personal and add changes to this tab that will be seen only by you. Learn more ›
×
You can save this tab as Personal to edit and correct it or add notes. All changes will be seen only by you. Learn more »
launch autoscroll
font size
0
reset
how to read this tab
guitar tuner
edit
Autoscroll
slow
fast
+/-
esc
set tempo
stop
Author
Hey everyone! I was looking around and saw none of these sound quite right, because they
were using single notes when it seems like there are more in the intro. When you hear
the recording, it sounds like a piano almost, but put the right effects on the guitar 
and it sounds great. This is my first tab, don't judge. Enjoy!

Tuning:Standard

Like this...

e|---------------------------------------------------------------------------|
B|-7-7-7--5-5--7-7-7---------------------------------------------------------|
G|-4-4-4--2-2--4-4-4--6-6-6--7-7--6-6-6--7-7--6-6-6--------------------------|
D|--------------------4-4-4--5-5--4-4-4--5-5--4-4-4--------------------------|repeat
A|---------------------------------------------------------------------------|
E|---------------------------------------------------------------------------|

Or this...

e|---------------------------------------------------------------------------|
B|---------------------------------------------------------------------------|
G|-11-11-11--9-9-9--11-11-11-------------------------------------------------|repeat
D|-9--9--9---7-7-7--9--9--9--11-11-11--12-12-12--11-11-11--12-12-12--11-11-11|
A|---------------------------9--9--9---10-10-10--9--9--9---10-10-10--9--9--9-|
E|---------------------------------------------------------------------------|

The acoustic version is is fun to learn to and sounds nothing like SHM, but good nonetheless.
They're the same, but sound slightly different, so your choice.

-niladoro7

Comments, feedback, whatever...Thanks!
Suggest correction
Creating personal tab
Creating personal tab
You can edit any tab online and save it as your Personal.

You can edit, replace or remove any tab part or add personal notes – all changes will be seen only by you.

Personal tabs can be accessed anytime from any device, even offline.
Learn more »
Give kudos to tab author, rate the tab!
1 2 3 4 5
comments
print report bad tab
2 comments total.
+1 reply
lecomotiv 54 Jul 29, 2013 09:31 AM

Bm F#m7 Bm F#m G F#m G F#m

7--7-7----------7--7-7--2--2--3--3-3--2--2--3--3-3--2--2--
7--7-7--10--10--7--7-7--2--2--3--3-3--2--2--3--3-3--2--2--
7--7-7--9---9---7--7-7--2--2--4--4-4--2--2--4--4-4--2--2-- x2 repeat
--------11--11--------------------------------------------
----------------------------------------------------------
----------------------------------------------------------

A Bm Bm7 G Bm7 G Bm7

0--0-0--0--0--2--2-2------------------------------------
2--2-2--2--2--3--3-3--3--3--3--3-3--3--3--3--3-3--3--3--
2--2-2--2--2--4--4-4--2--2--4--4-4--2--2--4--4-4--2--2--
----------------------4--4--5--5-5--4--4--5--5-5--4--4--
--------------------------------------------------------
--------------------------------------------------------

A Bm Bm G Bm G Bm

0--0-0--0--0--2--2-2--------3--3-3--2--2--3--3-3--2--2--
2--2-2--2--2--3--3-3--3--3--3--3-3--2--2--3--3-3--2--2--
2--2-2--2--2--4--4-4--4--4--4--4-4--2--2--4--4-4--2--2--
----------------------4--4------------------------------
--------------------------------------------------------
--------------------------------------------------------

0 reply
Pelusteriano 5,295 Sep 30, 2015 03:34 PM

Lack of accuracy. Tab incomplete. This doesn't do justice at all for this great song. It's only power chords that sound very off-tune. Also, it only includes the intro & verse, ignoring the pre-chorus, chorus and bridges. Very poor for a tab.

guest
You may want to rate the tab now too:
select rating
Wanna post a correction for this tab? Suggest correction