Oops, an error
Loading. Please wait.

Dont You Worry Child Tab

version 1
version 1

Solo

Whole song

Interactive

10,096 views 1 this week
2 commentsread comments
1 2 3 4 5
excellent!
x 15
add to favorites
launch autoscroll
font size
0
reset
how to read this tab
guitar tuner
Autoscroll
slow
fast
+/-
esc
set tempo
stop
Help us to improve Ultimate-Guitar.com Take our survey!
×
Difficulty
intermediate
This "solo" starts at 1:07.

Standard tuning.

e--9-9-9-7-9-10-10-10--5-2-7-7-7--5-2-7-7-7--5-10-9-9-9-7-9-10-10-10-|
B--------------------------------------------------------------------|
G--------------------------------------------------------------------|
D--------------------------------------------------------------------|
A--------------------------------------------------------------------|
E--------------------------------------------------------------------|

e--17-14-19-19-19---17-14-19-19-19-------------------------------|
B----------------------------------------------------------------|
G----------------------------------------------------------------|
D----------------------------------------------------------------|
A----------------------------------------------------------------|
E----------------------------------------------------------------|

Repeat this and you'll hopefully get it right
comments
print report bad tab
2 comments total.
+2 reply
frenchfry16 34 wrote on February 7 2013, 01:25 am

e--9-9-9-7-9-10-10-10--5---7-7-7--5---7-7-7--5-10-9-9-9-7-9-10-10-10-|
B------------------------7----------7--------------------------------|
G--------------------------------------------------------------------|
D--------------------------------------------------------------------|
A--------------------------------------------------------------------|
E--------------------------------------------------------------------|

e--------------------------------------------------------------------|
B--10-7-12-12-12-------10-7-12-12-12-------------------------------|
G--------------------------------------------------------------------|
D--------------------------------------------------------------------|
A--------------------------------------------------------------------|
E--------------------------------------------------------------------|

0 reply
theNoNamer 13 wrote on April 3 2013, 01:05 pm

this really works great for bass, thanks :]

I want to post or [tab]
guest
You may want to rate the tab now too:
select rating
Please do not post tabs as comments. Select "correction" instead!