Oops, an error
Loading. Please wait.

Dont You Worry Child Tab

version 2
version 2

Whole song

Interactive

45,614 views 42 this week
2 commentsread comments
1 2 3 4 5
x 23
add to favorites
launch autoscroll
font size
0
reset
how to read this tab
guitar tuner
Autoscroll
slow
fast
+/-
esc
set tempo
stop
Help us to improve Ultimate-Guitar.com Take our survey!
×
Author
Difficulty
intermediate
My first tab, so please be nice! I didn't find any real tabs on here,
so I decided to make it. I'm not the best at this, but I hope you'll like it.
I created most of it by ear but transcribed some parts from the sheet music.
Any problems, contact me at lukejames1996@googlemail.com

======
[Intro]
======

RIFF 1
E|------------------------------------------------------------|
B|--0--0--0----------------------0--0--0----------------------|
G|--------------2----2----------------------------------------|
D|-------------------------------------------4----4-----------|
A|------------------------------------------------------------|
E|------------------------------------------------------------|

E|------------------------------------------------------------|
B|------------------------------------------------------------|
G|--0--0--0----------------------0--0--0----------------------|
D|--------------4----4-----------------------4----4-----------|
A|------------------------------------------------------------|
E|------------------------------------------------------------| X2

======
[Verse]
======

RIFF 1
E|------------------------------------------------------------|
B|--0--0--0----------------------0--0--0----------------------|
G|--------------2----2----------------------------------------|
D|-------------------------------------------4----4-----------|
A|------------------------------------------------------------|
E|------------------------------------------------------------|

E|------------------------------------------------------------|
B|------------------------------------------------------------|
G|--0--0--0----------------------0--0--0----------------------|
D|--------------4----4-----------------------4----4-----------|
A|------------------------------------------------------------|
E|------------------------------------------------------------| X2


RIFF 2
E|------------------------------------------------------------|
B|-------------------------------0--0--0----------------------|
G|--2--2--2-----2----2----------------------------------------|
D|-------------------------------------------4----4-----------|
A|------------------------------------------------------------|
E|------------------------------------------------------------|

E|------------------------------------------------------------|
B|------------------------------------------------------------|
G|--0--0--0----------------------0--0--0----------------------|
D|--------------4----4-----------------------4----4-----------|
A|------------------------------------------------------------|
E|------------------------------------------------------------| X2


RIFF 1
E|------------------------------------------------------------|
B|--0--0--0----------------------0--0--0----------------------|
G|--------------2----2----------------------------------------|
D|-------------------------------------------4----4-----------|
A|------------------------------------------------------------|
E|------------------------------------------------------------|

E|------------------------------------------------------------|
B|------------------------------------------------------------|
G|--0--0--0----------------------0--0--0----------------------|
D|--------------4----4-----------------------4----4-----------|
A|------------------------------------------------------------|
E|------------------------------------------------------------| X2

===========
[Pre-Chorus]
===========

CHORDS 1
E|------------------------------------------------------------|
B|------------------------------------------------------------|
G|--2----------------------------4----------------------------|
D|--2----------------------------4----------------------------|
A|------------------------------------------------------------|
E|------------------------------------------------------------|

E|------------------------------------------------------------|
B|------------------------------------------------------------|
G|------------------------------------------------------------|
D|------------------------------------------------------------|
A|--2----------------------------5----------------------------|
E|--3----------------------------3----------------------------| X2


RIFF 3
E|------------------------------------------------------------|
B|--2--2--2-----0----2-----------3--3--3----------------------|
G|-------------------------------------------2----------------|
D|------------------------------------------------4-----------|
A|------------------------------------------------------------|
E|------------------------------------------------------------|

E|------------------------------------------------------------|
B|--0--0--0----------------------0--0--0----------3-----------|
G|--------------2----------------------------2----------------|
D|-------------------4----------------------------------------|
A|------------------------------------------------------------|
E|------------------------------------------------------------|

E|-------------------------------------------5----2-----------|
B|--2--2--2-----0----2-----------3--3--3----------------------|
G|------------------------------------------------------------|
D|------------------------------------------------------------|
A|------------------------------------------------------------|
E|------------------------------------------------------------|

E|--7--7--7-----7--7--7----------7--7--7-----7----------------|
B|------------------------------------------------------------|
G|------------------------------------------------------------|
D|------------------------------------------------------------|
A|------------------------------------------------------------|
E|------------------------------------------------------------|

=======
[Chorus]
=======

E|------------------------------------------------------------|
B|--2--2--2-----0----2-----------3--3--3----------------------|
G|-------------------------------------------2----------------|
D|------------------------------------------------4-----------|
A|--0--0--0-----0----0-----------2--2--2-----2----2-----------|
E|------------------------------------------------------------|

E|------------------------------------------------------------|
B|--0--0--0----------------------0--0--0----------3-----------|
G|--------------2----------------------------2----------------|
D|-------------------4----------------------------------------|
A|------------------------------------------------------------|
E|--3--3--3-----2----2-----------3--3--3-----3----3-----------|

E|-------------------------------------------5----2-----------|
B|--2--2--2-----0----2-----------3--3--3----------------------|
G|------------------------------------------------------------|
D|------------------------------------------------------------|
A|--0--0--0-----0----0-----------2--2--2-----2----2-----------|
E|------------------------------------------------------------|

E|--7--7--7-----5----2-----------7--7--7----------------------|
B|------------------------------------------------3-----------|
G|-------------------------------------------2----------------|
D|------------------------------------------------------------|
A|------------------------------------------------------------|
E|--3--3--3-----2----2-----------3--3--3-----3----3-----------| X2

*PAUSE*

======
[Verse]
======

RIFF 1
E|------------------------------------------------------------|
B|--0--0--0----------------------0--0--0----------------------|
G|--------------2----2----------------------------------------|
D|-------------------------------------------4----4-----------|
A|------------------------------------------------------------|
E|------------------------------------------------------------|

E|------------------------------------------------------------|
B|------------------------------------------------------------|
G|--0--0--0----------------------0--0--0----------------------|
D|--------------4----4-----------------------4----4-----------|
A|------------------------------------------------------------|
E|------------------------------------------------------------| X2


RIFF 2
E|------------------------------------------------------------|
B|-------------------------------0--0--0----------------------|
G|--2--2--2-----2----2----------------------------------------|
D|-------------------------------------------4----4-----------|
A|------------------------------------------------------------|
E|------------------------------------------------------------|

E|------------------------------------------------------------|
B|------------------------------------------------------------|
G|--0--0--0----------------------0--0--0----------------------|
D|--------------4----4-----------------------4----4-----------|
A|------------------------------------------------------------|
E|------------------------------------------------------------| X2


RIFF 1
E|------------------------------------------------------------|
B|--0--0--0----------------------0--0--0----------------------|
G|--------------2----2----------------------------------------|
D|-------------------------------------------4----4-----------|
A|------------------------------------------------------------|
E|------------------------------------------------------------|

E|------------------------------------------------------------|
B|------------------------------------------------------------|
G|--0--0--0----------------------0--0--0----------------------|
D|--------------4----4-----------------------4----4-----------|
A|------------------------------------------------------------|
E|------------------------------------------------------------| X2

===========
PRE-CHORUS (N.B: This time round doesn't have this playing but it sounds great anyway)
===========

CHORDS 1
E|------------------------------------------------------------|
B|------------------------------------------------------------|
G|--2----------------------------4----------------------------|
D|--2----------------------------4----------------------------|
A|------------------------------------------------------------|
E|------------------------------------------------------------|

E|------------------------------------------------------------|
B|------------------------------------------------------------|
G|------------------------------------------------------------|
D|------------------------------------------------------------|
A|--2----------------------------5----------------------------|
E|--3----------------------------3----------------------------| X2


RIFF 4
E|------------------------------------------------------------|
B|--2--2--2-----0----2-----------3--3--3----------------------|
G|-------------------------------------------2----------------|
D|------------------------------------------------4-----------|
A|------------------------------------------------------------|
E|------------------------------------------------------------|

E|------------------------------------------------------------|
B|--0--0--0----------------------0--0--0----------3-----------|
G|--------------2----------------------------2----------------|
D|-------------------4----------------------------------------|
A|------------------------------------------------------------|
E|------------------------------------------------------------|

E|-------------------------------------------5----2-----------|
B|--2--2--2-----0----2-----------3--3--3----------------------|
G|------------------------------------------------------------|
D|------------------------------------------------------------|
A|------------------------------------------------------------|
E|------------------------------------------------------------|

E|--7--7--7-----5----2-----------7--7--7----------------------|
B|------------------------------------------------3-----------|
G|-------------------------------------------2----------------|
D|------------------------------------------------------------|
A|------------------------------------------------------------|
E|------------------------------------------------------------|


RIFF 3
E|------------------------------------------------------------|
B|--2--2--2-----0----2-----------3--3--3----------------------|
G|-------------------------------------------2----------------|
D|------------------------------------------------4-----------|
A|------------------------------------------------------------|
E|------------------------------------------------------------|

E|------------------------------------------------------------|
B|--0--0--0----------------------0--0--0----------3-----------|
G|--------------2----------------------------2----------------|
D|-------------------4----------------------------------------|
A|------------------------------------------------------------|
E|------------------------------------------------------------|

E|-------------------------------------------5----2-----------|
B|--2--2--2-----0----2-----------3--3--3----------------------|
G|------------------------------------------------------------|
D|------------------------------------------------------------|
A|------------------------------------------------------------|
E|------------------------------------------------------------|

E|--7--7--7-----7--7--7----------7--7--7-----7----------------|
B|------------------------------------------------------------|
G|------------------------------------------------------------|
D|------------------------------------------------------------|
A|------------------------------------------------------------|
E|------------------------------------------------------------|

=======
[Chorus]
=======

E|------------------------------------------------------------|
B|--2--2--2-----0----2-----------3--3--3----------------------|
G|-------------------------------------------2----------------|
D|------------------------------------------------4-----------|
A|--0--0--0-----0----0-----------2--2--2-----2----2-----------|
E|------------------------------------------------------------|

E|------------------------------------------------------------|
B|--0--0--0----------------------0--0--0----------3-----------|
G|--------------2----------------------------2----------------|
D|-------------------4----------------------------------------|
A|------------------------------------------------------------|
E|--3--3--3-----2----2-----------3--3--3-----3----3-----------|

E|-------------------------------------------5----2-----------|
B|--2--2--2-----0----2-----------3--3--3----------------------|
G|------------------------------------------------------------|
D|------------------------------------------------------------|
A|--0--0--0-----0----0-----------2--2--2-----2----2-----------|
E|------------------------------------------------------------|

E|--7--7--7-----5----2-----------7--7--7----------------------|
B|------------------------------------------------3-----------|
G|-------------------------------------------2----------------|
D|------------------------------------------------------------|
A|------------------------------------------------------------|
E|--3--3--3-----2----2-----------3--3--3-----3----3-----------|


E|------------------------------------------------------------|
B|--2--2--2-----0----2-----------3--3--3----------------------|
G|-------------------------------------------2----------------|
D|------------------------------------------------4-----------|
A|--0--0--0-----0----0-----------2--2--2-----2----2-----------|
E|------------------------------------------------------------|

E|------------------------------------------------------------|
B|--0--0--0----------------------0--0--0----------3-----------|
G|--------------2----------------------------2----------------|
D|-------------------4----------------------------------------|
A|------------------------------------------------------------|
E|--3--3--3-----2----2-----------3--3--3-----3----3-----------|

E|-------------------------------------------5----2-----------|
B|--2--2--2-----0----2-----------3--3--3----------------------|
G|------------------------------------------------------------|
D|------------------------------------------------------------|
A|--0--0--0-----0----0-----------2--2--2-----2----2-----------|
E|------------------------------------------------------------|

E|------------------------------------------------------------|
B|------------------------------------------------------------|
G|------------------------------------------------------------|
D|------------------------------------------------------------|
A|------------------------------------------------------------|
E|------------------------------------------------------------|


E|------------------------------------------------------------|
B|--2--2--2-----0----2-----------3--3--3----------------------|
G|-------------------------------------------2----------------|
D|------------------------------------------------4-----------|
A|--0--0--0-----0----0-----------2--2--2-----2----2-----------|
E|------------------------------------------------------------|

E|------------------------------------------------------------|
B|--0--0--0----------------------0--0--0----------3-----------|
G|--------------2----------------------------2----------------|
D|-------------------4----------------------------------------|
A|------------------------------------------------------------|
E|--3--3--3-----2----2-----------3--3--3-----3----3-----------|

E|-------------------------------------------5----2-----------|
B|--2--2--2-----0----2-----------3--3--3----------------------|
G|------------------------------------------------------------|
D|------------------------------------------------------------|
A|--0--0--0-----0----0-----------2--2--2-----2----2-----------|
E|------------------------------------------------------------|

E|--7--7--7-----5----2-----------7--7--7----------------------|
B|------------------------------------------------3-----------|
G|-------------------------------------------2----------------|
D|------------------------------------------------------------|
A|------------------------------------------------------------|
E|--3--3--3-----2----2-----------3--3--3-----3----3-----------|

======
[Outro]
======

RIFF 4
E|------------------------------------------------------------|
B|--2--2--2-----0----2-----------3--3--3----------------------|
G|-------------------------------------------2----------------|
D|------------------------------------------------4-----------|
A|------------------------------------------------------------|
E|------------------------------------------------------------|

E|------------------------------------------------------------|
B|--0--0--0----------------------0--0--0----------3-----------|
G|--------------2----------------------------2----------------|
D|-------------------4----------------------------------------|
A|------------------------------------------------------------|
E|------------------------------------------------------------|

E|-------------------------------------------5----2-----------|
B|--2--2--2-----0----2-----------3--3--3----------------------|
G|------------------------------------------------------------|
D|------------------------------------------------------------|
A|------------------------------------------------------------|
E|------------------------------------------------------------|

E|--7--7--7-----5----2-----------7--7--7----------------------|
B|------------------------------------------------3-----------|
G|-------------------------------------------2----------------|
D|------------------------------------------------------------|
A|------------------------------------------------------------|
E|------------------------------------------------------------|

===========
END OF SONG
===========
Suggest correction
comments
print report bad tab
2 comments total.
+4 reply
cajun524 10 Oct 24, 2012 08:55 PM

Great job, thanks. All day I've been looking for a good song that actually uses guitar instead of an auto tuner.

0 reply
yigitbilgici135 10 Jul 11, 2015 12:10 PM

it's great but i think in riff three; 4 on D should have been 0 on G. sounds better like this :)

guest
You may want to rate the tab now too:
select rating
Wanna post a correction for this tab? Suggest correction