Oops, an error
Loading. Please wait.

One Bass Tab

version 1
version 1

Whole song

3,846 views 9 this week
no commentswrite comment
1 2 3 4 5
accurate
x 4
add to favorites
launch autoscroll
font size
0
reset
guitar tuner
Autoscroll
slow
fast
+/-
esc
set tempo
stop
Help us to improve Ultimate-Guitar.com Take our survey!
×
Author
Difficulty
Just a jam along to the synth, easy and fun to play :)

Riff 1
G|-----------------------|
D|-----7-5---------------|
A|-5-5-----8-7-5-5-5-5-5-|
E|-----------------------|

Riff 2
G|---------------------------------------------------|
D|-5-5-5-5/8-8-8-8--8-5-8-12-12-12-12-10-10-10-10-10-|
A|---------------------------------------------------|
E|---------------------------------------------------|

Riff 3
G|-------------------------|
D|-------5-----------------|
A|-5-7-8---8-7-5-----------|
E|---------------8-5---3-5-|

Riff 1 X4
Riff 2 X4
Break
Riff 1 X10
Riff 3 X4
Riff 2 X3
Riff 3 X6
Riff 2 X2
Suggest correction
comments
print report bad tab
guest
You may want to rate the tab now too:
select rating
Wanna post a correction for this tab? Suggest correction