Oops, an error
Loading. Please wait.

One Tab

version 2
version 2
25,860 views 3 this week
no commentswrite comment
1 2 3 4 5
worth learning
x 5
add to favorites
launch autoscroll
font size
0
reset
how to read this tab
guitar tuner
Tab Pro tools
  • play this tab
  • loop segment
  • change instrument
  • show fretboard
  • metronome
Autoscroll
slow
fast
+/-
esc
set tempo
stop
Contributor
-----------------------------------------------------------------------------
                             One - Swedish House Mafia
-----------------------------------------------------------------------------
Tabbed by: Luuk V.D.Meer
Email:

Tuning: Standard (EADGBe)

e|--------------------------------------------------------------------------|
B|--x---x---x---x---x---x---x---x---x---x---x---x---x---x---x---x---x---x---|
G|--x---x---x---x---x---x---x---x---x---x---x---x---x---x---x---x---x---x---|
D|--x---x---x---x---x---x---x---x---x---x---x---x---x---x---x---x---x---x---|
A|--------------------------------------------------------------------------|
E|--------------------------------------------------------------------------|

e|--------------------------------------------------------------------------|
B|--x---x---x---x---x---x---x---x---x---x---x---x---x---x---x---x---x---x---|
G|--x---x---x---x---x---x---x---x---x---x---x---x---x---x---x---x---x---x---|
D|--x---x---x---x---x---x---x---x---x---x---x---x---x---x---x---x---x---x---|
A|--------------------------------------------------------------------------|
E|--------------------------------------------------------------------------|

e|------------------------------------------------|
B|--x---x---x---x---x---x---x---x---x---x---x---x-|
G|--x---x---x---x---x---x---x---x---x---x---x---x-|
D|--x---x---x---x---x---x---x---x---x---x---x---x-|
A|--7---7---7---7---7---7---7---7---7---7---7---7-|
E|--7---7---7---7---7---7---7---7---7---7---7---7-|
PM  -   -   -   -   -   -   -   -   -   -   -   -

e|------------------------------------------------|
B|--x--x--x--x-x-x-xxxxxxxxxxxxxxxxxxxxxxxx/\/\/\-|
G|--x--x--x--x-x-x-xxxxxxxxxxxxxxxxxxxxxxxx/\/\/\-|
D|--x--x--x--x-x-x-xxxxxxxxxxxxxxxxxxxxxxxx/\/\/\-|
A|--7--7--7--7-7-7-777777777777777777777777-------|
E|--7--7--7--7-7-7-777777777777777777777777-------|
PM  -  -  -  - - - ------------------------W/

e|-----------------------------------------------------------|
B|-----------------------------------------------------------|
G|-----------------------------------------------------------|
D|-----------------------------------------------------------|
A|--7-5-3-2-3-3-3-3-3-3-3-3--00-7-5-3-2-3-3-3-3-3-3-3-3------|
E|-----------------------------------------------------------|
 W\

e|-----------------------------------------------------------|
B|-----------------------------------------------------------|
G|-----------------------------------------------------------|
D|-----------------------------------------------------------|
A|-00-7-5-3-2-3-3-3-3-3-3-3-3--00-7-5-3-2-3-3-3-3-3-3-3-3----|
E|-----------------------------------------------------------|

e|-----------------------------------------------------------|
B|-----------------------------------------------------------|
G|----9-7-5-4-5-5-5-5-5-5-5-5-----9-7-5-4-7-7-7-7-7-7-7-7----|
D|----x-x-x-x-x-x-x-x-x-x-x-x-----x-x-x-x-x-x-x-x-x-x-x-x----|
A|-00-7-5-3-2-3-3-3-3-3-3-3-3--00-7-5-3-2-5-5-5-5-5-5-5-5----|
E|-----------------------------------------------------------|
8x


e|--------------------------------------------------------|
B|--------------------------------------------------------|
G|--------------------------------------------------------|
D|-00-7-5-3-2-3-3-3-3-3-3-3-3--00-7-5-3-2-5-5-5-5-5-5-5-5-|
A|--------------------------------------------------------|
E|--------------------------------------------------------|
2x

e|--------------------------------------------------------|
B|----7-5-3-2-3-3-3-3-3-3-3-3-----7-5-3-2-5-5-5-5-5-5-5-5-|
G|----9-7-5-4-5-5-5-5-5-5-5-5-----9-7-5-4-7-7-7-7-7-7-7-7-|
D|-00-7-5-3-2-3-3-3-3-3-3-3-3--00-7-5-3-2-5-5-5-5-5-5-5-5-|
A|--------------------------------------------------------|
E|--------------------------------------------------------|
Lead Guitar 2x | Rhythm guitar 4x

Lead guitar after the 2x (while rhythm plays it 2 more times)
e|----15-13-12-13-12-10-13-12-|
B|-15-------------------------|
G|----------------------------|
D|----------------------------|
A|----------------------------|
E|----------------------------|

e|----15-13-12-13-12-15-13-12-|
B|-15-------------------------|
G|----------------------------|
D|----------------------------|
A|----------------------------|
E|----------------------------|

e|----15-13-12-13-12-10-13-12-|
B|-15-------------------------|
G|----------------------------|
D|----------------------------|
A|----------------------------|
E|----------------------------|

e|----15-13-12-13-12-15-13-12-|
B|-15-------------------------|
G|----------------------------|
D|----------------------------|
A|----------------------------|
E|----------------------------|

e|--------------------------------------------------------------------------|
B|-15-15-15-15-15-15-15-15-15-15-15-15-15-15-15-15-15-15-15-15-15-15-15-15--|
G|--------------------------------------------------------------------------|
D|--------------------------------------------------------------------------|
A|--------------------------------------------------------------------------|
E|--------------------------------------------------------------------------|

Lead guitar 6x| rhythm 8x
e|-----------------------------------------------------------|
B|-----------------------------------------------------------|
G|----9-7-5-4-5-5-5-5-5-5-5-5-----9-7-5-4-7-7-7-7-7-7-7-7----|
D|----x-x-x-x-x-x-x-x-x-x-x-x-----x-x-x-x-x-x-x-x-x-x-x-x----|
A|-00-7-5-3-2-3-3-3-3-3-3-3-3--00-7-5-3-2-5-5-5-5-5-5-5-5----|
E|-----------------------------------------------------------|

Lead guitar:
e|----15-13-12-13-12-10-13-12-|
B|-15-------------------------|
G|----------------------------|
D|----------------------------|
A|----------------------------|
E|----------------------------|

e|----15-13-12-13-12-15-13-12-|
B|-15-------------------------|
G|----------------------------|
D|----------------------------|
A|----------------------------|
E|----------------------------|

e|----15-13-12-13-12-10-13-12-|
B|-15-------------------------|
G|----------------------------|
D|----------------------------|
A|----------------------------|
E|----------------------------|

e|----15-13-12-13-12-15-13-12-|
B|-15-------------------------|
G|----------------------------|
D|----------------------------|
A|----------------------------|
E|----------------------------|


e|-----------------------------------------------------------|
B|-----------------------------------------------------------|
G|----9-7-5-4-5-5-5-5-5-5-5-5-----9-7-5-4-7-7-7-7-7-7-7-7----|
D|----x-x-x-x-x-x-x-x-x-x-x-x-----x-x-x-x-x-x-x-x-x-x-x-x----|
A|-00-7-5-3-2-3-3-3-3-3-3-3-3--00-7-5-3-2-5-5-5-5-5-5-5-5----|
E|-----------------------------------------------------------|
4x


e|--------------------------------------------------------|
B|-00-7-5-3-2-3-3-3-3-3-3-3-3--00-7-5-3-2-5-5-5-5-5-5-5-5-|
G|--------------------------------------------------------|
D|--------------------------------------------------------|
A|--------------------------------------------------------|
E|--------------------------------------------------------|
2x

Rhythm Guitar 
e|-----------------------------------------------------------|
B|-----------------------------------------------------------|
G|----9-7-5-4-5-5-5-5-5-5-5-5-----9-7-5-4-7-7-7-7-7-7-7-7----|
D|----x-x-x-x-x-x-x-x-x-x-x-x-----x-x-x-x-x-x-x-x-x-x-x-x----|
A|-00-7-5-3-2-3-3-3-3-3-3-3-3--00-7-5-3-2-5-5-5-5-5-5-5-5----|
E|-----------------------------------------------------------|
4x

Lead Guitar:
e|----15-13-12-13-12-10-13-12-|
B|-15-------------------------|
G|----------------------------|
D|----------------------------|
A|----------------------------|
E|----------------------------|

e|----15-13-12-13-12-15-13-12-|
B|-15-------------------------|
G|----------------------------|
D|----------------------------|
A|----------------------------|
E|----------------------------|

e|----15-13-12-13-12-10-13-12-|
B|-15-------------------------|
G|----------------------------|
D|----------------------------|
A|----------------------------|
E|----------------------------|

e|----15-13-12-13-12-15-13-12-|
B|-15-------------------------|
G|----------------------------|
D|----------------------------|
A|----------------------------|
E|----------------------------|

e|----15-13-12-13-12-10-13-12-|
B|-15-------------------------|
G|----------------------------|
D|----------------------------|
A|----------------------------|
E|----------------------------|

e|----15-13-12-13-12-15-13-12-|
B|-15-------------------------|
G|----------------------------|
D|----------------------------|
A|----------------------------|
E|----------------------------|

e|----15-13-12-13-12-10-13-12-|
B|-15-------------------------|
G|----------------------------|
D|----------------------------|
A|----------------------------|
E|----------------------------|

e|----15-13-12-13-12-15-13-12-|
B|-15-------------------------|
G|----------------------------|
D|----------------------------|
A|----------------------------|
E|----------------------------|

e|-----------------------------------------------------------|
B|-----------------------------------------------------------|
G|-----------------------------------------------------------|
D|-----------------------------------------------------------|
A|-00-7-5-3-2-3-3-3-3-3-3-3-3--00-7-5-3-2-3-3-3-3-3-3-3-3----|
E|-----------------------------------------------------------|
8x

Drum-ending


************************************

| /   slide up
| \   slide down
| h   hammer-on
| p   pull-off
| ~   vibrato
| +   harmonic
| x   Mute note
| b   Bend
| pb  Pre-bend
| br  Bend release
| pbr Pre-bend release
| brb Bend release bend
| PM  Palm Mute
| W/  Wah effect on
| W\  Wah effect off
************************************
comments
print report bad tab
I want to post or [tab]
guest
You may want to rate the tab now too:
select rating
Please do not post tabs as comments. Select "correction" instead!