Oops, an error
Loading. Please wait.

Ballroom Blitz Bass Tab

version 1
version 1

Whole song

Interactive

31,627 views 105 this week
2 commentsread comments
1 2 3 4 5
excellent!
x 5
add to favorites
launch autoscroll
font size
0
reset
guitar tuner
Autoscroll
slow
fast
+/-
esc
set tempo
stop
Help us to improve Ultimate-Guitar.com Take our survey!
×
Author
Song: Ballroom Blitz
Band: Sweet
Tabbed by: cianormo

This song really swings! Name says it all.

Main Riff, Slide only at 00:19
G|-------|--------------------------------|
D|-------|--------------------------------|
A|-------|---7-7-7-7-7-7-7---7-7-7-7-7-7-7|
E|-x-12/-|-0---------------0--------------|

Verse
G|--------------------------------|
D|--------------------------------|
A|--------------------------------|
E|-6-6-6-6-6-6-6-6-6-6-6-6-6-6-6-6|

Pre Chorus
G|--------------------------------|
D|--------------------------------|
A|-7------------------------------|
E|--------------------------------|

G|--------------------------------|
D|--------------------------------|
A|--------------------------------|
E|-2-2-2-2-2-2-2-3-5-5-5-5-5-5-5-7|

G|--------------------------------|
D|--------------------------------|
A|-----------------7-7-7-7-7-7-7-7|
E|-8-8-8-8-8-8-8-9----------------|

G|--------------------------------|
D|--------------------------------|
A|7-7-7-7-7-7-7-7-7-7-7-7-7-7-7-7/|
E|--------------------------------|

Chorus
G|--------------------------------|
D|--------------------------------|
A|------------------------7-7-7-7/|
E|2-2-2-2-5-5-5-5-7-7-7-7---------|

G|--------------------------------|
D|--------------------------------|
A|------------------------7-------|
E|2-2-2-2-5-5-5-5-7-7-7-7---------|

G|--------------------------------| The number of times you play this part changes
D|--------------------------------|
A|-5--6-7-7-7-7-7-7-7-7-7-7-7-7-7-|
E|--------------------------------|

Bass solo/Interlude
G|--------------------------------|
D|--------------------------------|
A|-7-7-7-7-7-7-7-7-7-7-7-7-7--5---|
E|--------------------------------|

G|--------------------------------|
D|--------------------------------|
A|-7-7-7-7-7-7-7-7-7-7-7-7-7--5--6|
E|--------------------------------|

End of interlude
G|--------------------------------|
D|--------------------------------|
A|77777777777777777777777777777777|
E|--------------------------------|

Main Riff x2
Verse x1
Main Riff x1
Verse x1
Main Riff x1
(Drums)
Pre Chorus x1
Chorus x1
Main Riff x1
Verse x1
Main Riff x1
Verse x1
Main Riff x1
(Drums)
Pre Chorus x1
Chorus x1
Interlude x4
End of Interlude x1
Pre Chorus x1
Chorus x1
(More Drums)
Main Riff till the end

Enjoy!!!
Suggest correction
comments
print report bad tab
2 comments total.
+2 reply
Lemurs4mangos 1,616 wrote on February 18 2008, 07:30 pm

This song is frikkin Dr. Seuse on crack!

+1 reply
Swordacool 10 wrote on May 23 2009, 10:45 pm

hey, u should definitely put some lyrics xD
this tab is kinda confusing...
from i tried to play, its pretty accurate

guest
You may want to rate the tab now too:
select rating
Wanna post a correction for this tab? Suggest correction