Oops, an error
Loading. Please wait.

Fox On The Run Tab

version 1
version 1

Whole song

Interactive

19,816 views 27 this week
no commentswrite comment
1 2 3 4 5
not so good
x 5
add to favorites
launch autoscroll
font size
0
reset
how to read this tab
guitar tuner
Tab Pro tools
  • play this tab
  • loop segment
  • change instrument
  • show fretboard
  • metronome
Autoscroll
slow
fast
+/-
esc
set tempo
stop
Difficulty
novice
Fox on the Run - Sweet

(E A D G B E)

Keyboard Intro

Intro
(0:07)

------------------|
------------------|
----------7~------|
--9~~--7~-7~--9~--|
--9~~--7~-5~--9~--|
--7~~--5~-----7~--|

Verse                             Bridge
(0:23)                            (0:32)

---------------------------        -------------------------|
---7-----------------------        -------------------------|
---8---------------7-7-7-7-        -------------------------|  x2
-9-9-9-9-9-7-7-7-7-7-7-7-7-        -------------------------|
-9-9-9-9-9-7-7-7-7-5-5-5-5-        -------------------------|
-7-7-7-7-7-5-5-5-5---------        -5-5-5-5-5-5-5-5-5-5-5-5-|


Verse 2     ^^^^      Bridge
(0:38)      same      (0:47)


Chorus
(0:52)

-----------------------|
-----------------------|
-9-9-9-9-9-------------|        Bridge 2 to chorus again
-9-9-9-9-9-7-7-7-7-7-7-| x3     (palm mute 5 then shift to 7)
-7-7-7-7-7-7-7-7-7-7-7-|
-----------5-5-5-5-5-5-|

Intro                  Verse         Bridge 2
(1:19) x2              (1:26)        (1:36)


Verse            Bridge             Chorus      Bridge 2
(1:43)           (1:51)             (1:56)      (2:08)

Chorus
(2:15)

Bridge 3
(2:19)

--------|
--------|
-9~~----|
-9~~-7~-|
-7~~-7~-|
-----5~-|

Solo
(2:26)

---------------------------------------------------------------------|
-------------------------12~~------------12~~-10-12-10-12/14-12-10~~-|
------------8-9-11-11---------8-9/11---------------------------------|
-9~~--11~~-----------9~~-------------9~~-----------------------------|
---------------------------------------------------------------------|
---------------------------------------------------------------------|

---------------------|
-10h12-10-10h12-10~~-|
---------------------|
---------------------|
---------------------|
---------------------|

Chorus       Bridge 2     Chorus
(2:44)       (2:55)       (3:03)


END
comments
print report bad tab
I want to post or [tab]
guest
You may want to rate the tab now too:
select rating
Please do not post tabs as comments. Select "correction" instead!