Oops, an error
Loading. Please wait.

Love Is Like Oxygen Tab

version 1
version 1

Solo

Whole song

Interactive

10,693 views 6 this week
no commentswrite comment
1 2 3 4 5
1 last vote to show rating
add to favorites
launch autoscroll
font size
0
reset
how to read this tab
guitar tuner
Autoscroll
slow
fast
+/-
esc
set tempo
stop
Help us to improve Ultimate-Guitar.com Take our survey!
×
This is the instrumental section from the full version of Love is Like Oxygen on 
Hitz The Very Best of Sweet".

h=hammer
/=slide

I was supposed to be working one day and started listening to this track and decided it 
be more fun to tab it than write an essay, so here it is! As far as i know its right but 
may have got a bit muddled at some point, its easy to work out though so think of this as a basis to start.

-------------------------------------------|
-5-3---3-------3h5-3---3--5-3---3----------|
----5-2-5-4-4h5-----5-2-4----5-2-5-4-------|
-------------------------5----------5-5/7--|x2
-------------------------------------------|
-------------------------------------------|


-8-6---6-------6h8-6---6--8-6---6----------|
----9-6-9-8-8h9-----9-6-8----9-6-9-8-------|
-------------------------8----------8-8/10-|
-------------------------------------------|
-------------------------------------------|
-------------------------------------------|


-------------------------------------------|
-------------------------------------------|
-8-6---6-------6h8-6---6--8-6---6----------|
----9-6-9-8-8h9-----9-6-8----9-6-9-8-------|
-------------------------9----------9-9/11-|
-------------------------------------------|


-------------------------------------------|
-8-6---6-------6h8-6---6--8-6---6----------|
----8-5-8-7-7h8-----8-5-7----8-5-8-7-------|
-------------------------8----------8-8/10-|
-------------------------------------------|
-------------------------------------------|

-12-10-----10-----------10h12-10-----10----12-10-----10--------------|
------13-10--13-12-12h13--------13-10--12-------13-10--13-12---------|
-----------------------------------------12-----------------12-12/14-|
---------------------------------------------------------------------|
---------------------------------------------------------------------|
---------------------------------------------------------------------|
Suggest correction
Give kudos to tab author, rate the tab!
1 2 3 4 5
comments
print report bad tab
guest
You may want to rate the tab now too:
select rating
Wanna post a correction for this tab? Suggest correction