Oops, an error
Loading. Please wait.

Peppermint Twist Bass Tab

3,105 views 1 this week
1 commentread comment
1 2 3 4 5
1 last vote to show rating
add to favorites
launch autoscroll
font size
0
reset
guitar tuner
Autoscroll
slow
fast
+/-
esc
set tempo
stop
Help us to improve Ultimate-Guitar.com Take our survey!
×
Author
Difficulty
intermediate
Artist:The Sweet
Song:Peppermint Twist
Album:Sweet Fanny Adams
Bassist:Steve Norman Priest
Tabber:Dev Fuld

I received a request for this song. Excellent song too. I guarnantee this tab.

Key:
* = Let it ring

*Guitar Intro*

Intro
G:------------------------------|------------------------------|
D:------------------------------|------------------------------|
A:------------7-------7--7------|------------7-------7--7------|
E:7-7*--5-5*----9-7-9------9-7-9|7-7*--5-5*----9-7-9------9-7-9|

Verse
G:------------------|------------------|------------------|------------------|
D:------------------|------------------|7-------7--7------|------------------|
A:7-------7--7------|7-------7--7------|--9-7-9------9-7-9|7-------7--7------|
E:--9-7-9------9-7-9|--9-7-9------9-7-9|------------------|--9-7-9------9-7-9|

G:--------------------|------------------|
D:9---------7--7------|------------------|
A:--11-9-11------9-7-9|7-------7--7------|
E:--------------------|--9-7-9------9-7-9|

Next part 
G:------------------|------------------|------------------|------------------|
D:------------------|------------------|7-------7--7------|------------------|
A:7-------7--7------|7-------7--7------|--9-7-9------9-7-9|7-------7--7------|
E:--9-7-9------9-7-9|--9-7-9------9-7-9|------------------|--9-7-9------9-7-9|

G:--------------------|-----|
D:9---------7--7------|-----|
A:--11-9-11------9-7-9|7*-7*|
E:--------------------|-----|

Pre-Solo
G:----------------------------------|
D:---------6666-666-9999-999---4-5-6|
A:7777-777-------------------7------|
E:----------------------------------|

Solo
G:------------------|------------------|--------------------|------------------|
D:7-------7--7------|------------------|9---------7--7------|------------------|
A:--9-7-9------9-7-9|7-------7--7------|--11-9-11------9-7-9|7-------7--7------|
E:------------------|--9-7-9------9-7-9|--------------------|--9-7-9------9-7-9|

Verse

Verse

Verse

Break

Next Part
G:------------------|------------------|------------------|------------------|
D:------------------|------------------|7-------7--7------|------------------|
A:7-------7--7------|7-------7--7------|--9-7-9------9-7-9|7-------7--7------|
E:--9-7-9------9-7-9|--9-7-9------9-7-9|------------------|--9-7-9------9-7-9|

G:--------------------|-----|
D:9---------7--7------|-----|
A:--11-9-11------9-7-9|7*-7*|
E:--------------------|-----|

Next
G:----------------------------------|
D:---------6666-666-9999-999---4-5-6|
A:7777-777-------------------7------|
E:----------------------------------|

Next
G:------------------|------------------|--------------------|------------------|
D:7-------7--7------|------------------|9---------7--7------|------------------|
A:--9-7-9------9-7-9|7-------7--7------|--11-9-11------9-7-9|7-------7--7------|
E:------------------|--9-7-9------9-7-9|--------------------|--9-7-9------9-7-9|

Play the Verse through the End

That's it. This is an awesome song, I've already put it in order too. Any questions 
or comments, e-mail me at rocklvson@yahoo.com

Suggest correction
Give kudos to tab author, rate the tab!
1 2 3 4 5
comments
print report bad tab
1 comment total.
0 reply
rOck°xxx 30 Feb 18, 2009 08:28 AM

great tab!

guest
You may want to rate the tab now too:
select rating
Wanna post a correction for this tab? Suggest correction