Oops, an error
Loading. Please wait.

Solid Gold Brass Bass Tab

1,273 views 1 this week
1 commentread comment
1 2 3 4 5
please rate
add to favorites
launch autoscroll
font size
0
reset
guitar tuner
Tab Pro tools
  • play this tab
  • loop segment
  • change instrument
  • show fretboard
  • metronome
×
Best way to learn
"Solid Gold Brass"
Autoscroll
slow
fast
+/-
esc
set tempo
stop
Contributor
Difficulty
intermediate
----------------------------------------------------------------------------
			 Solid Gold Brass - Sweet
----------------------------------------------------------------------------

Tabbed By : Ruben49

Tuning: standard

INTRO:

G|------|------|----|---------|
D|------|------|----|---------|
A|------|------|----|-10-7----|
E|---0--|---0--|----|--------7|

Riff 1

G|--------------|--------------|--------------|
D|--------------|--------------|--------------|
A|-7--7--7-x-7--|-7--7--7-x-7--|-7-x-7--7---7-|
E|-------------7|-------------7|----------7---|

G|----------|-------------|----------------|-----|-----|
D|----------|-------------|----------------|-----|-----|
A|-10-7-----|-7--7--7-x-7-|-7-x-7--7--5----|-----|-----|
E|--------7-|-------------|-------------7-5|(5)--|(5)--|

BRIDGE:

Riff 2A

G|-----------|------------|-----------|---------------9-|
D|-----------|-5----------|-----------|-9h10-12--9h10---|
A|-7-5--7-5--|---5-7--5-6-|-7-5--7-5--|-----------------|
E|-----7----7|------------|-----7----7|-----------------|

Riff 2B

G|-----------|------------|-----------|---------|
D|-----------|-5----------|-----------|---------|
A|-7-5--7-5--|---5-7--5-6-|-7-5--7-5--|-7-7-7-7-|
E|-----7----7|------------|-----7----7|---------|

COUPLET:
(Heart of a woman... gonna drive you wild)
G|----|----|----|----|----|----|----|----|
D|----|----|----|----|----|----|----|----|
A|----|----|----|----|----|----|----|----|
E|----|----|----|----|----|----|----|----|

Riff 3a
                                    3x
G|-----------------|-----------------|-----------------|----------------|
D|o----------------|----------------o|-----------------|----------------|
A|o-7--7--7--7-x-7-|-7--7--7--7---7-o|--7--7--7--7---7-|-0000000--2-3-4-|
E|-----------------|------------7----|-------------7---|----------------|

Riff 3b
                            4x
G|-------------|-------------|----------------|---------------------|
D|o------------|------------o|----------------|---------------------|
A|o-4--4--4--4-|-4--4--4--4-o|-2--2--2-2-2--0-|(0)--00000000--[5-6]-|
E|-------------|-------------|----------------|---------------------|
                                                    [don't play 2nd time]
BRIDGE:

Riff 2b: 1x

COUPLET:                                                    2x
G|--------------|-------------|--------------|---------------|
D|o-------------|-------------|--------------|--------------o|
A|o-7--7--7-x-7-|-7--7--7---7-|-0--0--0-x-0--|-0-x-0--0-x-0-o|
E|--------------|---------7---|-------------0|---------------|

Riff 3 (a+b) 1x


INTERLUDE:
                                          4x
G|-9--10-9------9--------------------------|
D|----------12----12----------------------o|
A|--------------------12--9------------10-o|
E|--------------------------12--10--12-----|

G|----------------------|---------------------|
D|----------------------|----------8-9--------|
A|----------------------|----10-12------------|
E|-12-11-10-9-8-9-10-11-|-12-----------10-9-7-|

G|------------------------|-----------------|
D|----------------9-------|-----------------|
A|----------11-12---12-11-|-----------------|
E|-12-11-12---------------|-12-11-4-5-6-7-9-|

G|----------------------|------------------------|
D|----------------------|----------8-9h8----8----|
A|----------------------|----10-12-------12---12-|
E|-12-11-10-9-8-9-10-11-|-12---------------------|

                             7x
G|-------------|--------------|-------------|--------------|-----------|
D|-------------|-------------o|-------------|--------------|-----------|
A|-7--7--7-x-7-|-7--7--7-x-7-o|-7--7--7-x-7-|-0oo0oo0oo0oo-|-0oo0oo0---|
E|-------------|------------7-|-------------|--------------|-----------|

Riff 3b: 1x

COUPLET:                                                    2x
G|--------------|-------------|--------------|---------------|
D|o-------------|-------------|--------------|--------------o|
A|o-7--7--7-x-7-|-7--7--7---7-|-0--0--0-x-0--|-0-x-0--0-x-0-o|
E|--------------|---------7---|-------------0|---------------|

                            2x
G|-------------|-------------|------------|------------|
D|o------------|------------o|------------|------------|
A|o-4--4--4--4-|-4--4--4--4-o|-4--4--4--4-|-4--4--4-4h3|
E|-------------|-------------|------------|------------|

G|-------------|------------|------------|------------|
D|o------------|------------|------------|------------|
A|o-2--2--2--2-|-2--2--2--2-|-2--2--2--2-|-2--2--2-2h3|
E|-------------|------------|------------|------------|

                            2x
G|-------------|-------------|----------------|-------------------|
D|o------------|------------o|----------------|-------------------|
A|o-4--4--4--4-|-4--4--4--4-o|-2--2--2-2-2--0-|(0)--00000000--5-6-|
E|-------------|-------------|----------------|-------------------|

OUTRO:

G|-----------|------------|-----------|---------|
D|-----------|-5----------|-----------|---------|
A|-7-5--7-5--|---5-7--5-6-|-7-5--7-5--|-7-7-7-7-|
E|-----7----7|------------|-----7----7|---------|

G|------|------|-------------|------|-----------------------|
D|------|------|-------------|------|s14-12-----------------|
A|------|------|-Guitar-Riff-|------|-------14-12-----------|
E|---0--|---0--|-------------|---0--|-------------15-10-12--|

----------------------------------------------------------------------------
| /  slide up
| \  slide down
| h  hammer-on
| p  pull-off
| ~  vibrato
| +  harmonic
| x  Mute note
============================================================================
comments
We did not receive enough feedback on this tab! Please rate:
print report bad tab
1 2 3 4 5
1 comment total.
0 reply
rOck°xxx wrote on August 15 2009, 10:15 am

What an awesome tab. I just began playing that song and I have to say - wow. Thumbs up! And thanks for such a great tab!!!
Solid Gold Brass - awesome song, by an awesome band!

I want to post or [tab]
guest
You may want to rate the tab now too:
select rating
Please do not post tabs as comments. Select "correction" instead!