Oops, an error
Loading. Please wait.

Kamelia Tab

version 1
version 1

Whole song

31 views 3 this week
no commentswrite comment
1 2 3 4 5
3 more votes to show rating
add to favorites
launch autoscroll
font size
0
reset
how to read this tab
guitar tuner
Autoscroll
slow
fast
+/-
esc
set tempo
stop
Help us to improve Ultimate-Guitar.com Take our survey!
×
Author
Difficulty
novice
[Intro]
A#m  A#m7   X4

[BASS]
A#m  A#m7  X4
F#  F

G|----|----|---------------------14|16-17----17-16-14---14-16--17-16|
D|----|----|------------------14---|-----------------14-------------|
A|----|----|12----------12-15------|--------------------------------|
E|----|----|-----------------------|--------------------------------|

G|-14--|----|-----------------------|--------------------------------|
D|-----|----|------------------sama cam atas-------------------------|
A|-----|----|----------------tapi octave lower-----------------------|
E|-----|----|-----------------------|--------------------------------|

[GUITAR SOLO]
  D#m  C#  F
  G#   F#  F
e|-----------------|
B|-----------------|
G|-----------------|
D|-------3-----3---|
A|-3-4-6---4-6-----|
E|-----------------| x2

e|----------------------------------4^-----4^---2--1--------|
B|-----------------------4^---2---2-------------------------|
G|-----5---3-2-3-5---3-2--------5---------------------------|
D|-2s3------------------------------------------------------|
A|----------------------------------------------------------|
E|----------------------------------------------------------|

[Verse 1]
     A#m
   Gugusan hari-hari indah bersamamu
       F     F# F
   Kamelia...
       D#m
   Bangkitkan kembali
        F
   Rinduku mengajakmu
      A#m    F# F
   Ke sana

[Verse 2]
    A#m
   Inginku berlari mengejar seribu bayangmu
       F     F# F
   Kamelia...
       D#m
   Tak peduli kan ku terjang
        F
   Biar pun harus kutembus
          A#m      F# G#
   Padang ilalang

[Chorus]
     C#              G#
   Tiba-tiba langkahku terhenti
     D#m     F            A#m
   Sejuta tangan telah menahanku
    C7              F
   Inginku mati mereka berkata
          A#m        G#
   Tak perlu kau berlari
        F#                 F
   Mengejar impian tak pasti
        A#m       G#
   Hari ini juga mimpi
        F#          F
   Maka biarkan ia datang
          A#m   G#
   Di hatimu..
          F#    F  A#m
   Di hatimu..


Suggest correction What's this?
Suggest correction
Give kudos to tab author, rate the tab!
1 2 3 4 5
comments
print report bad tab
guest
You may want to rate the tab now too:
select rating
Wanna post a correction for this tab? Suggest correction