Oops, an error
Loading. Please wait.

Just Another Empty Dream Tab

1,693 views 9 this week
no commentswrite comment
1 2 3 4 5
please rate
add to favorites
launch autoscroll
font size
0
reset
how to read this tab
guitar tuner
Autoscroll
slow
fast
+/-
esc
set tempo
stop
Help us to improve Ultimate-Guitar.com Take our survey!
×
Author
Difficulty
intermediate
http://en.wikipedia.org/wiki/Sweet_Smoke

SWEET SMOKE

JUST ANOTHER EMPTY DREAM


Transcripted by Christophe Siccardi

Please note that this tab is based on my own interpretation of the song & the
lyrics (even harder beeing french :-P)
All credits are from EMI Electrola and Sweet Smoke band

feel free to ask any questions remarks or suggestion to moka_one@hotmail.fr


chords used:

Verse :
Am      G#      C       Am      Dm      F       Am
8       8       8       5       5       7       8
10      10      8       5       6       9       10
9       9       9       5       7       9       9
7       6       10      7       7       9       7
X       X       X       X       5       7       X
X       X       X       X       X       X       X

Chorus :
Am      G#      Fm      G       ||      Am      C       F       G       Am
5       4       1       3       ||      5       3       1       3       5
5       4       1       3       ||      5       5       1       3       5
5       5       1       4       ||      5       5       2       4       5
7       6       3       5       ||      7       5       3       5       7
7       6       3       5       ||      7       3       3       5       7
5       4       1       3       ||      5       X       1       3       5


Intro:

-----------------------------------------------8-----------------------------------------8---|
--------10---------8--10----------10------------------10----------10----------8--10------10--|
-----9------9-----------------9--------9----------9-----------9--------9-----------------9---|
--7------------7----------7----------------7---------------7--------------7--------------7---|
-----------------------------------------------------------------------------------------X---|
-----------------------------------------------------------------------------------------X---|

(Verse)
Am              G#
When she said whe wouldn't stay
C                       Am
   turn her eyes away
Dm               F
she left with my
Am                (trick)
tomorow

(Verse)
Am                         G#
Thought she gave her heart to
C                       Am
me now it's plain to see  it's
Dm                      F
just for me
Am         (trick)
to borrow


Trick:
-------------------------------|
-------------------------------|
------------5------------------|
-------5h7----7-5-7---5--------|
--5h7-------------------7-5----|
----------------------------5--|


(Chorus)
Am                                 G#
Just another empty Dream I'm singing
Fm                                 G
Close my eyes and I'll forget she's not there
Am                                C
Then I see a light inside
F                            G                  Am
and I can find my way so clear

(Guitar Solo 1)

-------5----------10-----------------------------------------|
----------8h5---------8b10--8b10--8h5--------5---------------|
--7b9----------7-----------------------7--5-----7--5-----5---|
------------------------------------------------------7------|
-------------------------------------------------------------|
-------------------------------------------------------------|


(flute solo) & (Verse)

(Verse)
Am                              G#
Silver moon on midnight hair
C                               Am
in the dark I see her standing there
Dm                                      F
and I know she's really never left me


A
deep down inside
G
so baby close your eyes

it's time you realize
C
that the pain we had

wasn't really so bad
(trick 2)
so don't cry no more


Trick 2
---------------------------------|
---------------------------------|
---------------------------------|
---7b9b7--5--7--5----------------|
-------------------7--5--7-------|
---------------------------------|

bridge
--------------------------------------------------------------------------------------|
--------------------------------------------------------------------------------------|
-------------7---8/9--7------------------7---8/9--7-----------------7---8/9--7--------|
--7--9---10-------------10--9--7--9---10-----------10--9--7--9---10-------------10--9-|
--------------------------------------------------------------------------------------|
--------------------------------------------------------------------------------------|

repeat 4 times
-------------------------------------------------------|
-------------------------------------------------------|
------------------------------7------7---9---7---------|
--7----7--9--7--9--10--9--10-----10--------------10--9-|
----10-------------------------------------------------|
-------------------------------------------------------|

---------------------------------|
---------------------------------|
-------------7---8/9--7----------|
--7--9---10-------------10--9--7-|
---------------------------------|
---------------------------------|

(Guitar Solo 2)

12--12-----------------------------------15b--15b--12---------|
-------15h13-------13------------13--------------------15--13-|
--------------14-------14--12h14-----14-----------------------|
--------------------------------------------------------------|
--------------------------------------------------------------|
--------------------------------------------------------------|

-----------------------------------------------|
-----------------------------------------------|
-14--12--14------------------------------------|
-------------12h14h12---10--10h12--10h12--10---|
-----------------------------------------------|
-----------------------------------------------|




(piano Solo) & (Verse)

(Sax Solo) & (Verse)

(intro)


(Verse)
Am                              G#
    I cried but now I see
C                                                 Am
that together was more than just her and me
       Dm                                F
now I feel so sure I can open the door
(Outro)
And I see a way

Outro:

repeat 3 times :
-------------------------------------------------------|
-------------------------------------------------------|
------------------------------7------7---9---7---------|
--7----7--9--7--9--10--9--10-----10--------------10--9-|
----10-------------------------------------------------|
-------------------------------------------------------|

---------------------------------------------|
---------------------------------------------|
-------------7(let ring)---9--7--------------|
--7--9---10-----------------------10------7--|
--------------------------------------10-----|
---------------------------------------------|
Suggest correction
What's this?
You can suggest a correction to this tab. Community and Mods will review your correction and vote to approve or reject it.
comments
We did not receive enough feedback on this tab! Please rate:
print report bad tab
1 2 3 4 5
guest
You may want to rate the tab now too:
select rating
Please do not post tabs as comments. Select "correction" instead!