Oops, an error
Loading. Please wait.

Charger Tab

397 views 1 this week
no commentswrite comment
1 2 3 4 5
please rate
add to favorites
launch autoscroll
font size
0
reset
how to read this tab
guitar tuner
Tab Pro tools
  • play this tab
  • loop segment
  • change instrument
  • show fretboard
  • metronome
×
Best way to learn
"Charger"
Autoscroll
slow
fast
+/-
esc
set tempo
stop
Contributor
Difficulty
intermediate
Artist:  Swift
Album:   The Absolute Uncontrollable
Song:    Charger
URL:     http://www.swift-band.com

Tuning:  B-E-A-D-F#-B

This tab isn't complete, but i am going to continue to work on it and update it when i 
new parts.

Intro:
-----------------|
-----------------|
-2---7-----------|
-2---5----5------|
-0---5----5------|
---0---0--3------|

-----------------|
-----------------|
-2---5-----------|
-2---5----3------|
-0---3----3------|
---0---0--1------| X2


Verse 1:

--------------------------------------------------------------------------|
--------------------------------------------------------------------------|
------------------------5---4---------------------------------------------|
-----5---3-----5---3-----------5--------5----3------5---3-----------------|
--------------------------------------------------------------5---5--3--5-|
-0-0---0----0-0---0---0---0---0-----0-0----0-----0-0---0---0----0---------| X2

--------------------------------------------------------------------------|
--------------------------------------------------------------------------|
--------------------------------------------------------------------------|
------------------------5---4---------------------------------------------|
-----5---3------5---3-----------5--------5---3-------5---3----------------|
-0-0---0----0-0---0---0---0---0-----0-0----0-----0-0---0---0-5-0-5-3-5----| X2

--------------------------------------------------------------------------|
--------------------------------------------------------------------------|
------------------------5---4---------------------------------------------|
-----5---3-----5---3-----------5--------5----3------5---3-----------------|
--------------------------------------------------------------5---5--3--5-|
-0-0---0----0-0---0---0---0---0-----0-0----0-----0-0---0---0----0---------| X1

--------------------------------------------------------------------------|
--------------------------------------------------------------------------|
--------------------------------------------------------------------------|
------------------------5---4---------------------------------------------|
-----5---3------5---3-----------5--------5---3-------5---3----------------|
-0-0---0----0-0---0---0---0---0-----0-0----0-----0-0---0---0-5-0-5-3-5----| X1


Chorus:
-----------------------------------|
-----------------------------------|
-2-4-5555--5-4-5555--7-4-5555-5/7--|
-2---------5---------7--------5/7--|
-0---------3---------5--------3/5--|
-----------------------------------|

----------------------------------------|
----------------------------------------|
-2-4-5555--5-4-5555--7-4-5555---5----4--|
-2---------5---------7----------5----4--|
-0---------3---------5----------3----2--|
-----------------------------00---00----| X2

Verse 2:
--------------------------------------------------------------------------|
--------------------------------------------------------------------------|
------------------------5---4---------------------------------------------|
-----5---3-----5---3-----------5--------5----3------5---3-----------------|
--------------------------------------------------------------5---5--3--5-|
-0-0---0----0-0---0---0---0---0-----0-0----0-----0-0---0---0----0---------| X2

--------------------------------------------------------------------------|
--------------------------------------------------------------------------|
--------------------------------------------------------------------------|
------------------------5---4---------------------------------------------|
-----5---3------5---3-----------5--------5---3-------5---3----------------|
-0-0---0----0-0---0---0---0---0-----0-0----0-----0-0---0---0-5-0-5-3-5----| X2

--------------------------------------------------------------------------|
--------------------------------------------------------------------------|
------------------------5---4---------------------------------------------|
-----5---3-----5---3-----------5--------5----3------5---3-----------------|
--------------------------------------------------------------5---5--3--5-|
-0-0---0----0-0---0---0---0---0-----0-0----0-----0-0---0---0----0---------| X2


Break 1:
Not done yet

Chorus:
-----------------------------------|
-----------------------------------|
-2-4-5555--5-4-5555--7-4-5555-5/7--|
-2---------5---------7--------5/7--|
-0---------3---------5--------3/5--|
-----------------------------------|

----------------------------------------|
----------------------------------------|
-2-4-5555--5-4-5555--7-4-5555---5----4--|
-2---------5---------7----------5----4--|
-0---------3---------5----------3----2--|
-----------------------------00---00----| X2


Break 2:
------------------------------------------------------------|
------------------------------------------------------------|
------------------------------------------------------------|
-----0-2-4-5-4-----0-2-4-5-4-7-4-----0-2-4-5-4-7-4-9-4-7-4--|
-222-----------222---------------222------------------------|
-000-----------000---------------000------------------------|

Break 3:
Not Done Yet

Intro:
-----------------|
-----------------|
-2---7-----------|
-2---5----5------|
-0---5----5------|
---0---0--3------|

-----------------|
-----------------|
-2---5-----------|
-2---5----3------|
-0---3----3------|
---0---0--1------|

Verse 3:

--------------------------------------------------------------------------|
--------------------------------------------------------------------------|
------------------------5---4---------------------------------------------|
-----5---3-----5---3-----------5--------5----3------5---3-----------------|
--------------------------------------------------------------5---5--3--5-|
-0-0---0----0-0---0---0---0---0-----0-0----0-----0-0---0---0----0---------| X2

--------------------------------------------------------------------------|
--------------------------------------------------------------------------|
--------------------------------------------------------------------------|
------------------------5---4---------------------------------------------|
-----5---3------5---3-----------5--------5---3-------5---3----------------|
-0-0---0----0-0---0---0---0---0-----0-0----0-----0-0---0---0-5-0-5-3-5----| X2

Chorus:
-----------------------------------|
-----------------------------------|
-2-4-5555--5-4-5555--7-4-5555-5/7--|
-2---------5---------7--------5/7--|
-0---------3---------5--------3/5--|
-----------------------------------|

----------------------------------------|
----------------------------------------|
-2-4-5555--5-4-5555--7-4-5555---5----4--|
-2---------5---------7----------5----4--|
-0---------3---------5----------3----2--|
-----------------------------00---00----| X2

Break 4:
Not done yet.

Outro:
Not done yet.
comments
We did not receive enough feedback on this tab! Please rate:
print report bad tab
1 2 3 4 5
I want to post or [tab]
guest
You may want to rate the tab now too:
select rating
Please do not post tabs as comments. Select "correction" instead!