Oops, an error
Loading. Please wait.

Beach Justice Bass Tab

611 views 1 this week
no commentswrite comment
1 2 3 4 5
please rate
add to favorites
launch autoscroll
font size
0
reset
guitar tuner
Autoscroll
slow
fast
+/-
esc
set tempo
stop
Help us to improve Ultimate-Guitar.com Take our survey!
×
Author
Difficulty
novice
INTRO
G|----------------------------------|
D|----------------------------------|
A|--7(x17)--------------------------|
E|----------------------------------|

RIFF 1
G|---------------------------------------------------|
D|-------7-------7--------------7--------7-----------|
A|---7-9-----7-9---9-7-------7-9------7-9---9-7------|
E|-5-------5-----------9---------10------------------|   x3

RIFF 1 (Alt Ending)
G|--------------------------------------------------------|
D|-------7-------7--------------7--------------9-7--------|
A|---7-9-----7-9---9-7-------7-9------7-9----------9-7----|
E|-5-------5-----------9----------10----------------------|

 VERSE
G|---------------------------------------------------|
D|---------------------------------------------------|
A|----------7(x8)-9(x12)-----------------------------|
E|--5(x8)----------------10(x4)----------------------|  x4

 RIFF 2
G|---------------------------------------------------|
D|---------------------------------------------------|
A|-----5-55--7-77--5-55--7-77------------------------|
E|---------------------------------------------------|

 RIFF 3
G|---------------------------------------------------|
D|---------------------------------------------------|
A|---------------------------------------------------|
E|---5--5-5-5--5--5-5-5--9--9-9-9--10--10-10-10------|   x2

THEN REPEAT RIFF 1 AND VERSE

G|---------------------------------------------------|
D|---------------------------------------------------|
A|-----5--5-7--7-5--5-7--7---------------------------|
E|---------------------------------------------------|

 RIFF 3 x2

 RIFF 1

 RIFF 1 Alt.

 ENDING

G|---------------------------------------------------|
D|---------------------------------------------------|
A|---------------------------------------------------|
E|--5--------9--------10-----------------------------|   x2

G|---------------------------------------------------|
D|-----9-7-------------------------------------------|
A|----------9-7--------------------------------------|
E|-----------------5---------------------------------|
Suggest correction new What's this?
You can suggest a correction to this tab. Community and Mods will review your correction and vote to approve or reject it.
comments
We did not receive enough feedback on this tab! Please rate:
print report bad tab
1 2 3 4 5
guest
You may want to rate the tab now too:
select rating
Please do not post tabs as comments. Select "correction" instead!