Oops, an error
Loading. Please wait.

Honey Bass Tab

4,003 views 6 this week
1 commentread comment
1 2 3 4 5
excellent!
x 11
add to favorites
launch autoscroll
font size
0
reset
guitar tuner
Autoscroll
slow
fast
+/-
esc
set tempo
stop
Help us to improve Ultimate-Guitar.com Take our survey!
×
Author
Difficulty
novice
Band:Swim Deep
Song: Honey
Tuning: EADG (standard)

one of my first tabs so welcome corrections :)

All Timings based on music video

rest until 0:17

Intro/Chorus
G----------------------------------------------------------------|
D----------------------------------------------------------------| X2
A-4-4-4-4-4-4-4-4-----------------6-6-6-6-6-6-6-6----------------|
E-----------------4-4-4-4-4-4-4-4-----------------6-6-6-6-6-6-6-6|

rest again until 0:39

Verse

G----------------------------------------------------------------|
D----------------------------------------------------------------| X4
A-4----4-4----4-------------------6----6-6----6------------------|
E-----------------4----4-4----4-------------------6----6-6----6--|

Chorus (1:12)

G----------------------------------------------------------------|
D----------------------------------------------------------------| X2
A-4-4-4-4-4-4-4-4-----------------6-6-6-6-6-6-6-6----------------|
E-----------------4-4-4-4-4-4-4-4-----------------6-6-6-6-6-6-6-6|

rest again until 1:34

Verse

G----------------------------------------------------------------|
D----------------------------------------------------------------| X4
A-4----4-4----4-------------------6----6-6----6------------------|
E-----------------4----4-4----4-------------------6----6-6----6--|

Chorus (2:08)

G----------------------------------------------------------------|
D----------------------------------------------------------------| X2
A-4-4-4-4-4-4-4-4-----------------6-6-6-6-6-6-6-6----------------|
E-----------------4-4-4-4-4-4-4-4-----------------6-6-6-6-6-6-6-6|

Bridge (straight after chorus)

G------------------------End Here on 4th time--------------------|
D--------------------------------|-------------------------------| X4
A-4------------------------------6-------------------------------|
E-----------------4-------------------------------6--------------|

 Final Chorus (3:00)

G----------------------------------------------------------------|
D----------------------------------------------------------------| X4
A-4-4-4-4-4-4-4-4-----------------6-6-6-6-6-6-6-6----------------|
E-----------------4-4-4-4-4-4-4-4-----------------6-6-6-6-6-6-6-6|

Order:

Intro/Chorus X2
Verse X4
Chorus X2
Verse X4
Chorus X2
Bridge X4
Final Chorus X4
Suggest correction
comments
print report bad tab
1 comment total.
0 reply
joecoonz 73 wrote on August 20 2013, 06:00 pm

3 stars? This tab is perfect...

guest
You may want to rate the tab now too:
select rating
Please do not post tabs as comments. Select "correction" instead!