Oops, an error
Loading. Please wait.

Stray Bass Tab

631 views 1 this week
no commentswrite comment
1 2 3 4 5
1 last vote to show rating
add to favorites
launch autoscroll
font size
0
reset
guitar tuner
Autoscroll
slow
fast
+/-
esc
set tempo
stop
Help us to improve Ultimate-Guitar.com Take our survey!
×
Difficulty
intermediate
Swim Deep - Stray
From the Album 'Where the Heaven Are We'
Tabbed by George, hope you enjoy.


E|-9-9---------------|
A|--------9-9-9-11-14|
D|-----11------------|
G|-------------------| x24


E|9-9-9-9-9-9-9-9-(x4)|4-4-4-4-4-4-4-4|2-2-2-2-2-2-2-2|9-9-9-9-9-9-9-9-(x2)|
A|--------------------|---------------|---------------|--------------------|
D|--------------------|---------------|---------------|--------------------|
G|--------------------|---------------|---------------|--------------------|


E|-9-9---------------|
A|--------9-9-9-11-14|
D|-----11------------|
G|-------------------| x8


E|9-9-9-9-9-9-9-9-(x4)|4-4-4-4-4-4-4-4|2-2-2-2-2-2-2-2|9-9-9-9-9-9-9-9-(x2)|
A|--------------------|---------------|---------------|--------------------|
D|--------------------|---------------|---------------|--------------------|
G|--------------------|---------------|---------------|--------------------|

E|9-9-9-9-9-9-9-9-(x4)|4-4-4-4-4-4-4-4|2-2-2-2-2-2-2-2|9-9-9-9-9-9-9-9-(x2)|
A|--------------------|---------------|---------------|--------------------|
D|--------------------|---------------|---------------|--------------------|
G|--------------------|---------------|---------------|--------------------|


E|-9-9---------------|
A|--------9-9-9-11-14|
D|-----11------------|
G|-------------------| x16

E|-9-(hold)----------|
A|-------------------|
D|-------------------|
G|-------------------|

Suggest correction
Give kudos to tab author, rate the tab!
1 2 3 4 5
comments
print report bad tab
guest
You may want to rate the tab now too:
select rating
Wanna post a correction for this tab? Suggest correction