Oops, an error
Loading. Please wait.

Next In Line tab

version 1
version 1

Whole song

6,113 views 18 this week
no commentswrite comment
1 2 3 4 5
x 4
add to favorites
×
Save as Personal and add changes to this tab that will be seen only by you. Learn more ›
×
You can save this tab as Personal to edit and correct it or add notes. All changes will be seen only by you. Learn more »
launch autoscroll
font size
0
reset
how to read this tab
guitar tuner
edit
Autoscroll
slow
fast
+/-
esc
set tempo
stop
Author
Difficulty
"Next in Line"
by the Swingin Utters

Tab by Arthur Tsang
comments: minuslars@gmail.com

This is my first tab, and a great learning experience for me.
Please let me know how I did!
Thanks!

*Note: I am not sure if the Em is actually an E.
Figure out what you like.


Intro:

E---------------------------------|
B--4-4-5-4-2---2-2-4-------5-5-4--|
G-------------------4---4-------4-|
D---------------------------------|
A---------------------------------|
E---------------------------------|

Chords


B                     F#                E
 Born on the southside and you're living alone

B                F#                  E
 Four walls and a roof but its always cold

B                       F#
 Look out the window and there's nothing to see

      E
But a riot torn city the death of your country

F#                          E
   You're chilled to the bone no possessions to call your own

F# *this could also be Em
   You control your rage and you resist the crime,

F#                        B
Because you're the next in line.


*--Repeat above verse with distortion ---

Out the back door and to the corner store
All you want is a drink and nothing more
Sit on the stoop and let the liquid
soothe your pride, before you go inside
Now you're chilled to the bone no possessions to call your own
You control the rage and you resist the crime
You're the next in line

*listen to the song for the timing of this next part

E--------------------------------------------------|
B--------------------------------------------------|
G--------------------------11-11-11-11-11-9-9-9-9-9|
D-9-9-9-9-9-12-12-12-12-12-11-11-11-11-11-9-9-9-9-9|
A-9-9-9-9-9-12-12-12-12-12-9--9--9--9--9--7-7-7-7-7| x3
E-7-7-7-7-7-10-10-10-10-10-------------------------|

E-----------------------------------------------------|
B--------------------------11-11-11-11-11-9-----------|
G--------------------------11-11-11-11-11-9-(let ring)|
D-9-9-9-9-9-12-12-12-12-12-9--9--9--9--9--7-----------|
A-9-9-9-9-9-12-12-12-12-12-9--9--9--9--9--7-----------|
E-7-7-7-7-7-10-10-10-10-10----------------------------|

You cut in front and you're the next in line
You cut in front and you're the next in line
You never thought that you would lead a life of crime
You cut in front and you're the next in line.


Solo
*6h7 = hammer on 7
e-6h7-------------------------------------2--4-2--0-------------|
B------7h9-7--7-7-5-5-4-5-7-----------3h4--------4--4-----------|
G---------------------------4----4-6-4---------------4-6--4-6-6-|
D---------------------------------------------------------------|
A---------------------------------------------------------------|
E---------------------------------------------------------------|

*4p0 means play note, pull, and release to play the open note
e----------------------------------2--2h4--2-2--0--|
B---------4p0-----------4p0----3h4-------------4--4|
G-4-6-4-6--4----4-6-4-6------6---------------------|
E--------------------------------------------------|
A--------------------------------------------------|
E--------------------------------------------------|


* listen for timing, this goes for the next two lines.
E--------------------------------|
B-----------7-7-7-7-7-7-5-5-5-5-5|
G-5-5-5-5-5-7-7-7-7-7-7-5-5-5-5-5| x2 
D-5-5-5-5-5-5-5-5-5-5-5-3-3-3-3-3|
A-3-3-3-3-3-5-5-5-5-5-5-3-3-3-3-3|
E--------------------------------|

Freedom's the only thing you need 
But the truth is something few understand and an unwelcome reality 


B                       F#                E
 now it's dark and it's black and sad and gone you express and repress the things gone wrong 

B               F#             E
 and you want to be the man who ran away 

B                F#             E
 and you wish you could back to yesterday 

F#
 now he's in her room 

E
 and he's about to lie so you pull the gun and squeeze the trigger and 

F#              B
let the bullets fly...


B F#  repeat till end

            
            
Suggest correction
Creating personal tab
Creating personal tab
You can edit any tab online and save it as your Personal.

You can edit, replace or remove any tab part or add personal notes – all changes will be seen only by you.

Personal tabs can be accessed anytime from any device, even offline.
Learn more »
comments
print report bad tab
guest
You may want to rate the tab now too:
select rating
Wanna post a correction for this tab? Suggest correction