Oops, an error
Loading. Please wait.

Good Golly Miss Molly bass

2,465 views 1 this week
no commentswrite comment
1 2 3 4 5
2 more votes to show rating
add to favorites
×
Save as Personal and add changes to this tab that will be seen only by you. Learn more ›
×
You can save this tab as Personal to edit and correct it or add notes. All changes will be seen only by you. Learn more »
launch autoscroll
font size
0
reset
guitar tuner
edit
Autoscroll
slow
fast
+/-
esc
set tempo
stop
Author
Good Golly Miss Molly
The Swinging Blue Jeans
Written by Robert Blackwell and John Marascalco; released as a single with 
"Shaking Feeling" as the B-side.

Intro:
G|------- ------- ------- -------|------- ------- ------- -------|
D|-------------------------------|-------------------------------|
A|-------------------------------|-------------------------------|
E|-------------------------------|-------------------------------|
                                          Good gol -  ly, Miss


G|------- ------- ------- -------|------- ------- ------- -------|
D|----------------10--10--9------|----------------10--10--9------|
A|--------9---12--------------12-|--------9---12--------------12-|
E|10--10-------------------------|10--10-------------------------|
  Mol  -  ly,                         yeah,   sure    like to ball,
                                          you

G|------- ------- ------- -------|------- ------- ------- -------|
D|----------------10--10--9------|----------------10--10--9------|
A|--------9---12--------------12-|--------9---12--------------12-|
E|10--10-------------------------|10--10-------------------------|
                                      Oh, good gol  - ly, Miss Mol-


G|------- ------- 10--10- 9------|------- ------- 10--10- 9------|
D|--------9---12--------------12-|--------9---12--------------12-|
A|10--10-------------------------|10--10-------------------------|
E|-------------------------------|-------------------------------|
      ly,                             yeah,   sure    like to ball.
                                          you

G|------- ------- ------- -------|------- ------- ------- -------|
D|----------------10--10--9------|----------------10--10--9------|
A|--------9---12--------------12-|--------9---12--------------10-|
E|10--10-------------------------|10--10-------------------------|
                                      When    sha  -  kin' and a-
                                          you're

G|------- ------- 12--12- 11-----|------- ------- 10--10- 9------|
D|--------11--14--------------14-|--------9---12--------------12-|
A|12--12-------------------------|10-----------------------------|
E|-------------------------------|-------------------------------|
  shou -  tin',                       can't   hear    your mama
                                          you

G|------- ------- ------- -------|------- ------- ------- -------|
D|----------------10--10--9------|-------------------------------|
A|--------9---12--------------12-|0---0---12--0---12--0---12--0--|
E|10--10-------------------------|-------------------------------|
  call?                                               Well, from the

Verse:
G|------- ------- ------- -------|------- ------- ------- -------|
D|-------------------------------|-------------------------------|
A|-------------------------------|-------------------------------|
E|10----------------------3/-----|10----------------------3/-----|
  early,  early   morning to  the early, early    night,  when I

                                  6/4
G|------- ------- ------- -------|------- ------- ------- ------- ------- -------|
D|-------------------------------|-----------------------------------------------|
A|-------------------------------|-----------------------------------------------|
E|10-----------------------------|10---------------------------------------------|
  caught  Molly   rockin' at  the House of Blue Light, ooh!   Good golly, Miss
       Miss

G|------- ------- 10--10- 9------|------- ------- 10--10- 9------|
D|--------9---12--------------12-|--------9---12--------------12-|
A|10--10-------------------------|10--10-------------------------|
E|-------------------------------|-------------------------------|
  Mol  -  ly,                         yeah,   sure    like    to
                                          you

G|------- ------- ------- -------|------- ------- ------- -------|
D|----------------10--10--9------|----------------10--10--9------|
A|--------9---12--------------12-|--------9---12--------------10-|
E|10--10-------------------------|10--10-------------------------|
  ball.                               When    roc  -  kin' and a-
                                          you're

G|------- ------- 12--12- 11-----|------- ------- 10--10- 9------|
D|--------11--14--------------14-|--------9---12--------------12-|
A|12--12-------------------------|10--10-------------------------|
E|-------------------------------|-------------------------------|
  rol  -  lin',                       can't   hear    your mama
                                          you

G|------- ------- ------- -------|------- ------- ------- -------|
D|----------------10--10--9------|-------------------------------|
A|--------9---12--------------12-|0---0---12--0---12--0---12--0--|
E|10--10-------------------------|-------------------------------|
  call?                                               Well, now,

Verse:
G|------- ------- ------- -------|------- ------- ------- -------|
D|-------------------------------|-------------------------------|
A|-------------------------------|-------------------------------|
E|10----------------------3/-----|10----------------------3/-----|
  mom and pa- pa  told me "Son,   better watch your step, well, I
                              you'd
                                  6/4
G|------- ------- ------- -------|------- ------- ------- ------- ------- -------|
D|-------------------------------|-----------------------------------------------|
A|-------------------------------|-----------------------------------------------|
E|10-----------------------------|10---------------------------------------------|
  knew a- bout    Molly,  got to  watch my dad myself,    Good gol -  ly, Miss
              Miss

G|------- ------- 10--10- 9------|------- ------- 10--10- 9------|
D|--------9---12--------------12-|--------9---12--------------12-|
A|10--10-------------------------|10--10-------------------------|
E|-------------------------------|-------------------------------|
  Mol  -  ly,                         yeah,   sure    like to ball.
                                          you

G|------- ------- ------- -------|------- ------- ------- -------|
D|----------------10--10--9------|----------------10--10--9------|
A|--------9---12--------------12-|--------9---12--------------10-|
E|10--10-------------------------|10--10-------------------------|
                                      When    sha  -  kin' and a-
                                          you're

G|------- ------- 12--12- 11-----|------- ------- 10--10- 9------|
D|--------11--14--------------14-|--------9---12--------------12-|
A|12--12-------------------------|10--10-------------------------|
E|-------------------------------|-------------------------------|
  shou  - tin',                       can't   hear    your mama
                                          you

G|------- ------- ------- -------|------- ------- ------- -------|
D|----------------10--10--9------|-------------------------------|
A|--------9---12--------------12-|0-------12--0---12--0---12--0--|
E|10--10-------------------------|-------------------------------|
  call?

Break (solo):
G|------- ------- ------- -------|------- ------- ------- -------|
D|----------------10--10--9------|----------------10--10--9------|
A|--------9---12--------------12-|--------9---12--------------12-|
E|10--10-------------------------|10--10-------------------------|



G|------- ------- ------- -------|------- ------- ------- -------|
D|----------------10--10--9------|----------------10--10--9------|
A|--------9---12--------------12-|--------9---12--------------12-|
E|10--10-------------------------|10--10-------------------------|



G|------- ------- 10--10- 9------|------- ------- 10--10- 9------|
D|--------9---12--------------12-|--------9---12--------------12-|
A|10--10-------------------------|10--10-------------------------|
E|-------------------------------|-------------------------------|



G|------- ------- ------- -------|------- ------- ------- -------|
D|----------------10--10--9------|----------------10--10--9------|
A|--------9---12--------------12-|--------9---12--------------10-|
E|10--10-------------------------|10--10-------------------------|



G|------- ------- 12--12- 11-----|------- ------- 10--10- 9------|
D|--------11--14--------------14-|--------9---12--------------12-|
A|12--12-------------------------|10--10-------------------------|
E|-------------------------------|-------------------------------|



G|------- ------- ------- -------|------- ------- ------- -------|
D|----------------10--10--9------|-------------------------------|
A|--------9---12--------------12-|0---0---12--0---12--0---12--0--|
E|10--10-------------------------|-------------------------------|
                                                      Well, from the

Verse:
G|------- ------- ------- -------|------- ------- ------- -------|
D|-------------------------------|-------------------------------|
A|-------------------------------|-------------------------------|
E|10----------------------3/-----|10----------------------3/-----|
  early,  early   morning to  the early, early    night,  when I

                                  6/4
G|------- ------- ------- -------|------- ------- ------- ------- ------- -------|
D|-------------------------------|-----------------------------------------------|
A|-------------------------------|-----------------------------------------------|
E|10-----------------------------|10---------------------------------------------|
  caught  Molly   rockin' at  the House of Blue Light, ooh!   Good golly, Miss
       Miss

G|------- ------- 10--10- 9------|------- ------- 10--10- 9------|
D|--------9---12--------------12-|--------9---12--------------12-|
A|10--10-------------------------|10--10-------------------------|
E|-------------------------------|-------------------------------|
  Mol  -  ly,                         yeah,   sure    like    to
                                          you

G|------- ------- ------- -------|------- ------- ------- -------|
D|----------------10--10--9------|----------------10--10--9------|
A|--------9---12--------------12-|--------9---12--------------10-|
E|10--10-------------------------|10--10-------------------------|
  ball.                               When    you're rockin' and a-


G|------- ------- 12--12- 11-----|------- ------- 10--10- 9------|
D|--------11--14--------------14-|--------9---12--------------12-|
A|12--12-------------------------|10--10-------------------------|
E|-------------------------------|-------------------------------|
  rol  -  lin',                       can't   hear    your mama
                                          you

G|------- ------- ------- -------|------- ------- ------- -------|
D|----------------10--10--9------|-------------------------------|
A|--------9---12--------------12-|0---0---12--0---12--0---12--0--|
E|10--10-------------------------|-------------------------------|
  call?                       Yeah,       good gol -  ly, Miss

Outro:
G|------- ------- ------- -------|------- ------- ------- -------|
D|----------------10--10--9------|----------------10--10--9------|
A|--------9---12--------------12-|--------9---12--------------12-|
E|10--10-------------------------|10--10-------------------------|
  Mol  -  ly,                         oh, good gol -  ly, Miss


G|------- ------- ------- -------|------- ------- ------- -------|
D|----------------10--10--9------|----------------10--10--9------|
A|--------9---12--------------12-|--------9---12--------------12-|
E|10--10-------------------------|10--10-------------------------|
  Mol  -  ly,                 ooh!    Oh, good gol  - ly, Miss Mol-


G|------- ------- 10--10- 9------|------- ------- 10--10- 9------|
D|--------9---12--------------12-|--------9---12--------------12-|
A|10--10-------------------------|10--10-------------------------|
E|-------------------------------|-------------------------------|
      ly,                             yeah,   sure    like to ball.
                                          you

G|------- ------- ------- -------|------- ------- ------- -------|
D|----------------10--10--9------|----------------10--10--9------|
A|--------9---12--------------12-|--------9---12--------------10-|
E|10--10-------------------------|10--10-------------------------|
                                      When    sha  -  kin' and a-
                                          you're

G|------- ------- 12--12- 11-----|------- ------- 10--10- 9------|
D|--------11--14--------------14-|--------9---12--------------12-|
A|12--12-------------------------|10--10-------------------------|
E|-------------------------------|-------------------------------|
  shou -  tin',                       can't   hear    your mama
                                          you

G|------- ------- ------- -------|------- ------- ------- -------|
D|----------------10--10--9------|-------------------------------|
A|--------9---12--------------12-|-------------------------------|
E|10--10-------------------------|10----------10-----------------|
  call?

Please e-mail me for any corrections, or write a comment.

            
            
Suggest correction
Creating personal tab
Creating personal tab
You can edit any tab online and save it as your Personal.

You can edit, replace or remove any tab part or add personal notes – all changes will be seen only by you.

Personal tabs can be accessed anytime from any device, even offline.
Learn more »
Give kudos to tab author, rate the tab!
1 2 3 4 5
comments
print report bad tab
guest
You may want to rate the tab now too:
select rating
Wanna post a correction for this tab? Suggest correction