Oops, an error
Loading. Please wait.

Shaking Feeling Bass Tab

78 views 1 this week
no commentswrite comment
1 2 3 4 5
please rate
add to favorites
launch autoscroll
font size
0
reset
guitar tuner
Autoscroll
slow
fast
+/-
esc
set tempo
stop
Help us to improve Ultimate-Guitar.com Take our survey!
×
Author
Shaking Feeling
The Swinging Blue Jeans
Written by Ralph Ellis and Ray Ennis; released as the B-side to "Good Golly 
Miss Molly".

Intro:
G|------- ------- ------- -------|------- ------- ------- -------|
D|-------------------------------|-------------------------------|
A|5-----------5------------------|5------------------------------|
E|----------------5--------------|----------------5--------------|



G|------- ------- ------- -------|------- ------- ------- -------|
D|-------------------------------|-------------------------------|
A|5------------------------------|5------------------------------|
E|----------------5--------------|----------------5--------------|


Verse:
G|------- ------- ------- -------|------- ------- ------- -------|
D|-------------------------------|-------------------------------|
A|5-----------5------------------|5-----------5------------------|
E|----------------5--------------|----------------5--------------|
  Feel            so              grand,          gon  -  na


G|------- ------- ------- -------|------- ------- ------- -------|
D|-------------------------------|-------------------------------|
A|5------------------------------|5------------------------------|
E|----------------5--------------|----------------5--------------|
  shake   you     by      the hand,


G|------- ------- ------- -------|------- ------- ------- -------|
D|-------------------------------|-------------------------------|
A|5------------------------------|5-----------5------------------|
E|----------------5--------------|----------------5--------------|
  Feel            so              good,           come on,


G|------- ------- ------- -------|------- ------- ------- -------|
D|-------------------------------|------------------------4------|
A|5-----------5------------------|5-------5-------7--------------|
E|----------------5--------------|-------------------------------|
  love    me      like    you should,


G|------- ------- ------- -------|------- ------- ------- -------|
D|5-----------5------------------|5-----------5------------------|
A|----------------5--------------|----------------5--------------|
E|-------------------------------|-------------------------------|
  Feel            so              fine,           know    I'm


G|------- ------- ------- -------|------- ------- ------- -------|
D|5-----------5------------------|5-----------5------------------|
A|----------------5--------------|----------------5--------------|
E|-------------------------------|-------------------------------|
  gon  -  na      make    you mine,


G|------- ------- ------- -------|------- ------- ------- -------|
D|-------------------------------|-------------------------------|
A|5------------------------------|5------------------------------|
E|----------------5--------------|----------------5--------------|
  Feel            so              gay             e   -   ver


G|------- ------- ------- -------|------- ------- ------- -------|
D|-------------------------------|-------------------------------|
A|5------------------------------|5------------------------------|
E|----------------5--------------|----------------5--------------|
  since   you     came    my      way.            It's a


G|------- ------- ------- -------|------- ------- ------- -------|
D|7-----------7------------------|5-----------5------------------|
A|----------------7--------------|----------------5--------------|
E|-------------------------------|-------------------------------|
  shakin',                        shakin'


G|------- ------- ------- -------|------- ------- ------- -------|
D|-------------------------------|7-----------7---7--------------|
A|5-----------5------------------|-------------------------------|
E|----------------5--------------|-------------------------------|
  feelin'.

Verse:
G|------- ------- ------- -------|------- ------- ------- -------|
D|-------------------------------|-------------------------------|
A|5-----------5------------------|5-----------5------------------|
E|----------------5--------------|----------------5--------------|
  Eve     -       ry              day             I       just


G|------- ------- ------- -------|------- ------- ------- -------|
D|-------------------------------|-------------------------------|
A|5------------------------------|5------------------------------|
E|----------------5--------------|----------------5--------------|
  wan  -  na      hear    you say,


G|------- ------- ------- -------|------- ------- ------- -------|
D|-------------------------------|-------------------------------|
A|5------------------------------|5-----------5------------------|
E|----------------5--------------|----------------5--------------|
  Eve     -       ry              time,           that    you're


G|------- ------- ------- -------|------- ------- ------- -------|
D|-------------------------------|------------------------4------|
A|5-----------5------------------|5-------5-------7--------------|
E|----------------5--------------|-------------------------------|
  gon  -  na      be              mine,


G|------- ------- ------- -------|------- ------- ------- -------|
D|5-----------5------------------|5-----------5------------------|
A|----------------5--------------|----------------5--------------|
E|-------------------------------|-------------------------------|
  Eve     -       ry      -       where,                  just


G|------- ------- ------- -------|------- ------- ------- -------|
D|5-----------5------------------|5-----------5------------------|
A|----------------5--------------|----------------5--------------|
E|-------------------------------|-------------------------------|
  tell    me      you'll  be  there,


G|------- ------- ------- -------|------- ------- ------- -------|
D|-------------------------------|-------------------------------|
A|5-----------5------------------|5------------------------------|
E|----------------5--------------|----------------5--------------|
  Eve     -       ry              way             I       just


G|------- ------- ------- -------|------- ------- ------- -------|
D|-------------------------------|-------------------------------|
A|5------------------------------|5------------------------------|
E|----------------5--------------|----------------5--------------|
  love    you     more    each day.               It's a


G|------- ------- ------- -------|------- ------- ------- -------|
D|7-----------7------------------|5-----------5------------------|
A|----------------7--------------|----------------5--------------|
E|-------------------------------|-------------------------------|
  shakin',                        shakin'


G|------- ------- ------- -------|------- ------- ------- -------|
D|-------------------------------|7-----------7---7--------------|
A|5-----------5------------------|-------------------------------|
E|----------------5--------------|-------------------------------|
  feelin'.

Verse (solo):
G|------- ------- ------- -------|------- ------- ------- -------|
D|-------------------------------|-------------------------------|
A|5------------------------------|5------------------------------|
E|----------------5--------------|----------------5--------------|



G|------- ------- ------- -------|------- ------- ------- -------|
D|-------------------------------|-------------------------------|
A|5-----------5------------------|5-----------5------------------|
E|----------------5--------------|----------------5--------------|



G|------- ------- ------- -------|------- ------- ------- -------|
D|-------------------------------|-------------------------------|
A|5------------------------------|5------------------------------|
E|----------------5--------------|----------------5--------------|



G|------- ------- ------- -------|------- ------- ------- -------|
D|-------------------------------|------------------------4------|
A|5------------------------------|5-------5-------7--------------|
E|----------------5--------------|-------------------------------|



G|------- ------- ------- -------|------- ------- ------- -------|
D|5-----------5------------------|5------------------------------|
A|----------------5--------------|----------------5--------------|
E|-------------------------------|-------------------------------|



G|------- ------- ------- -------|------- ------- ------- -------|
D|5-----------5------------------|5------------------------------|
A|----------------5--------------|----------------5--------------|
E|-------------------------------|-------------------------------|



G|------- ------- ------- -------|------- ------- ------- -------|
D|-------------------------------|-------------------------------|
A|5-----------5------------------|5------------------------------|
E|----------------5--------------|----------------5--------------|



G|------- ------- ------- -------|------- ------- ------- -------|
D|-------------------------------|-------------------------------|
A|5------------------------------|5------------------------------|
E|----------------5--------------|----------------5--------------|



G|------- ------- ------- -------|------- ------- ------- -------|
D|7-----------7------------------|5-----------5------------------|
A|----------------7--------------|----------------5--------------|
E|-------------------------------|-------------------------------|



G|------- ------- ------- -------|------- ------- ------- -------|
D|-------------------------------|7-----------7---7--------------|
A|5------------------------------|-------------------------------|
E|----------------5--------------|-------------------------------|


Verse:
G|------- ------- ------- -------|------- ------- ------- -------|
D|-------------------------------|-------------------------------|
A|5------------------------------|5------------------------------|
E|----------------5--------------|----------------5--------------|
  Feel            so              grand,          gon  -  na


G|------- ------- ------- -------|------- ------- ------- -------|
D|-------------------------------|-------------------------------|
A|5------------------------------|5------------------------------|
E|----------------5--------------|----------------5--------------|
  shake   you     by      the hand,                   You know I


G|------- ------- ------- -------|------- ------- ------- -------|
D|-------------------------------|-------------------------------|
A|5------------------------------|5------------------------------|
E|----------------5--------------|----------------5--------------|
  feel            so              good,           come on,


G|------- ------- ------- -------|------- ------- ------- -------|
D|-------------------------------|------------------------4------|
A|5------------------------------|5-------5-------7--------------|
E|----------------5--------------|-------------------------------|
  love    me      like    you should,


G|------- ------- ------- -------|------- ------- ------- -------|
D|5-----------5------------------|5-----------5------------------|
A|----------------5--------------|----------------5--------------|
E|-------------------------------|-------------------------------|
  Feel            so              fine,           know    I'm


G|------- ------- ------- -------|------- ------- ------- -------|
D|5-----------5------------------|5-----------5------------------|
A|----------------5--------------|----------------5--------------|
E|-------------------------------|-------------------------------|
  gon  -  na      make    you mine,


G|------- ------- ------- -------|------- ------- ------- -------|
D|-------------------------------|-------------------------------|
A|5------------------------------|5------------------------------|
E|----------------5--------------|----------------5--------------|
  Feel            so              gay             e   -   ver


G|------- ------- ------- -------|------- ------- ------- -------|
D|-------------------------------|-------------------------------|
A|5------------------------------|5------------------------------|
E|----------------5--------------|----------------5--------------|
  since   you     came    my      way.            It's a


G|------- ------- ------- -------|------- ------- ------- -------|
D|7-----------7------------------|5-----------5------------------|
A|----------------7--------------|----------------5--------------|
E|-------------------------------|-------------------------------|
  shakin',                        shakin'


G|------- ------- ------- -------|------- ------- ------- -------|
D|-------------------------------|-------------------------------|
A|5------------------------------|5------------------------------|
E|----------------5--------------|----------------5--------------|
  feelin',                                            It's a

Outro:
G|------- ------- ------- -------|------- ------- ------- -------|
D|7-----------7------------------|5-----------5------------------|
A|----------------7--------------|----------------5--------------|
E|-------------------------------|-------------------------------|
  shakin',        whoa,           shakin'

(slow down)
G|------- ------- ------- -------|------- ------- ------- -------|
D|-------------------------------|-------------------------------|
A|5-------5-------5-------5------|5-------5-------5--------------|
E|-------------------------------|-------------------------------|
  feelin'.

Please e-mail me for any corrections, or write a comment.
Suggest correction
Give kudos to tab author, rate the tab!
1 2 3 4 5
comments
print report bad tab
guest
You may want to rate the tab now too:
select rating
Please do not post tabs as comments. Select "correction" instead!