Oops, an error
Loading. Please wait.

Think Of Me bass

110 views 1 this week
no commentswrite comment
1 2 3 4 5
2 more votes to show rating
add to favorites
×
Save as Personal and add changes to this tab that will be seen only by you. Learn more ›
×
You can save this tab as Personal to edit and correct it or add notes. All changes will be seen only by you. Learn more »
launch autoscroll
font size
0
reset
guitar tuner
edit
Autoscroll
slow
fast
+/-
esc
set tempo
stop
Author
Think Of Me
The Swinging Blue Jeans
Written by Ralph Ellis and Norman Kuhlke; released as the B-side to "It's Too 
Late Now".

Intro:
G|------- ------- ------- -------|------- ------- ------- -------|
D|-------------------------------|----------------------------6--|
A|------------------------7------|5---------------7---7---9------|
E|5-----------8---9--------------|-------------------------------|



G|------- ------- ------- -------|------- ------- ------- -------|
D|7------------------------------|-------------------------------|
A|------------7-----------7------|5-----------5---4--------------|
E|----------------9--------------|------------------------7------|


Verse:
G|------- ------- ------- -------|------- ------- ------- -------|
D|-------------------------------|------------------------9------|
A|------------------------7------|------------9---7--------------|
E|5-----------8---9--------------|10-----------------------------|
  Think       of  me                              when you're feeling


G|------- ------- ------- -------|------- ------- ------- -------|
D|7------------------------------|------------------------9------|
A|------------7-----------7------|------------9---7--------------|
E|----------------9--------------|10-----------------------------|
  sad         and blue,                           I might know just


G|------- ------- ------- -------|------- ------- ------- -------|
D|7------------------------------|------------------------9------|
A|------------7-----------7------|------------9---7--------------|
E|----------------9--------------|10-----------------------------|
  what to do,                     ooh,                I'll come to


G|------- ------- ------- -------|------- ------- ------- -------|
D|7------------------------------|------------------------9------|
A|------------7-----------7------|------------9---7--------------|
E|----------------9--------------|10-----------------------------|
  you,                    to      you.

Verse:
G|------- ------- ------- -------|------- ------- ------- -------|
D|7------------------------------|------------------------9------|
A|------------7-----------7------|------------9---7--------------|
E|----------------9--------------|10-----------------------------|
  Here        I   go,                             thinking things I


G|------- ------- ------- -------|------- ------- ------- -------|
D|7------------------------------|------------------------9------|
A|------------7-----------7------|------------9---7--------------|
E|----------------9--------------|10-----------------------------|
  shouldn't       do,                             Knowing that your


G|------- ------- ------- -------|------- ------- ------- -------|
D|7------------------------------|------------------------9------|
A|------------7-----------7------|------------9---7--------------|
E|----------------9--------------|10-----------------------------|
  love for me,                    ooh,                could never


G|------- ------- ------- -------|------- ------- ------- -------|
D|7------------------------------|-------------------------------|
A|------------7------------------|-------------------------------|
E|----------------9-------7------|5---5---6---6---7---7---8---8--|
  be,                 could never be.                         You're

Bridge:
G|------- ------- ------- -------|------- ------- ------- -------|
D|----------------4--------------|6------------------------------|
A|5-------7---------------5------|--------6-------4-------6------|
E|-------------------------------|-------------------------------|
  al  -   ways    on      my      mind,   what    can     I


G|------- ------- ------- -------|------- ------- ------- -------|
D|-------------------------------|-------------------------------|
A|7-------5---7-------5---7------|7-------5---7-------5---7------|
E|-------------------------------|-------------------------------|
  do?                                                         The


G|------- ------- ------- -------|------- 4------ ------- -------|
D|-------------------------------|6---------------6--------------|
A|5-------4----------------------|------------------------7------|
E|----------------7-------5------|-------------------------------|
  on  -   ly      girl    I       think               a - bout is


G|------- ------- ------- -------|------- ------- ------- -------|
D|-------------------------------|-------------------------------|
A|7-------9-------10-------------|7-------5-------4--------------|
E|------------------------7------|------------------------7------|
  you.

Verse:
G|------- ------- ------- -------|------- ------- ------- -------|
D|-------------------------------|------------------------9------|
A|------------------------7------|------------9---7--------------|
E|5-----------8---9--------------|10-----------------------------|
  There       you are,                            near to me, and


G|------- ------- ------- -------|------- ------- ------- -------|
D|7------------------------------|------------------------9------|
A|------------7-----------7------|------------9---7--------------|
E|----------------9--------------|10-----------------------------|
  yet         so  far,                            How I  wish that


G|------- ------- ------- -------|------- ------- ------- -------|
D|7------------------------------|------------------------9------|
A|------------7-----------7------|------------9---7--------------|
E|----------------9--------------|10-----------------------------|
  you could be,                   ooh,                in love with


G|------- ------- ------- -------|------- ------- ------- -------|
D|7------------------------------|------------------------9------|
A|------------7-----------7------|------------9---7--------------|
E|----------------9--------------|10-----------------------------|
  me,                         ooh!

Break (solo):
G|------- ------- ------- -------|------- ------- ------- -------|
D|7------------------------------|------------------------9------|
A|------------7-----------7------|------------9---7--------------|
E|----------------9--------------|10-----------------------------|
                                  Think   of      me,


G|------- ------- ------- -------|------- ------- ------- -------|
D|7------------------------------|------------------------9------|
A|------------7-----------7------|------------9---7--------------|
E|----------------9--------------|10-----------------------------|
                                  think   of      me!


G|------- ------- ------- -------|------- ------- ------- -------|
D|7------------------------------|------------------------9------|
A|------------7-----------7------|------------9---7--------------|
E|----------------9--------------|10-----------------------------|



G|------- ------- ------- -------|------- ------- ------- -------|
D|7------------------------------|------------------------9------|
A|------------7-----------7------|------------9---7--------------|
E|----------------9--------------|10-----------------------------|



G|------- ------- ------- -------|------- ------- ------- -------|
D|7------------------------------|------------------------9------|
A|------------7-----------7------|------------9---7--------------|
E|----------------9--------------|10-----------------------------|
                                  Think   of      me,


G|------- ------- ------- -------|------- ------- ------- -------|
D|7------------------------------|------------------------9------|
A|------------7-----------7------|------------9---7--------------|
E|----------------9--------------|10-----------------------------|
                                  think   of      me!


G|------- ------- ------- -------|------- ------- ------- -------|
D|7------------------------------|------------------------9------|
A|------------7-----------7------|------------9---7--------------|
E|----------------9--------------|10-----------------------------|



G|------- ------- ------- -------|------- ------- ------- -------|
D|7------------------------------|-------------------------------|
A|------------7-----------7------|------------9---7--------------|
E|----------------9--------------|10----------------------9------|
                                                              You're

Bridge:
G|------- ------- ------- -------|------- ------- ------- -------|
D|----------------4--------------|6------------------------------|
A|5-------7---------------5------|--------6-------4-------6------|
E|-------------------------------|-------------------------------|
  al  -   ways    on      my      mind,   what    can     I


G|------- ------- ------- -------|------- ------- ------- -------|
D|-------------------------------|-------------------------------|
A|7-------5---7-------5---7------|7-------5---7-------5---7------|
E|-------------------------------|-------------------------------|
  do?                                                         The


G|------- ------- ------- -------|------- ------- ------- -------|
D|-------------------------------|--------9-------6--------------|
A|5-------4----------------------|7-----------------------7------|
E|----------------7-------5------|-------------------------------|
  on  -   ly      girl    I       think               a - bout is


G|------- ------- ------- -------|------- ------- ------- -------|
D|-------------------------------|-------------------------------|
A|7-------9-------10-------------|7-------5-------4--------------|
E|------------------------7------|------------------------7------|
  you.

Verse:
G|------- ------- ------- -------|------- ------- ------- -------|
D|-------------------------------|------------------------9------|
A|------------------------7------|--------9-------7--------------|
E|5-----------8---9--------------|10-----------------------------|
  There       you are,                            near to me, and


G|------- ------- ------- -------|------- ------- ------- -------|
D|7------------------------------|------------------------9------|
A|--------7---------------7------|--------9-------7--------------|
E|----------------9--------------|10-----------------------------|
  yet         so  far,                            How I  wish that


G|------- ------- ------- -------|------- ------- ------- -------|
D|7------------------------------|------------------------9------|
A|--------7---------------7------|--------9-------7--------------|
E|----------------9--------------|10-----------------------------|
  you could be,                   ooh,                in love with


G|------- ------- ------- -------|------- ------- ------- -------|
D|7------------------------------|------------------------9------|
A|--------7---------------7------|--------9-------7--------------|
E|----------------9--------------|10-----------------------------|
  me,                         ooh,                    in love with

Outro:
G|------- ------- ------- -------|------- ------- ------- -------|
D|7------------------------------|------------------------9------|
A|--------7---------------7------|--------9-------7--------------|
E|----------------9--------------|10-----------------------------|
  me,                         ooh,                    in love with


G|------- ------- ------- -------|------- ------- ------- -------|
D|7------------------------------|-------------------------------|
A|-------------------------------|-------------------------------|
E|----------------9-------7------|5------------------------------|
  me.

Please e-mail me for any corrections, or write a comment.

            
            
Suggest correction
Creating personal tab
Creating personal tab
You can edit any tab online and save it as your Personal.

You can edit, replace or remove any tab part or add personal notes – all changes will be seen only by you.

Personal tabs can be accessed anytime from any device, even offline.
Learn more »
Give kudos to tab author, rate the tab!
1 2 3 4 5
comments
print report bad tab
guest
You may want to rate the tab now too:
select rating
Wanna post a correction for this tab? Suggest correction