Oops, an error
Loading. Please wait.

10 Dead Fingers tab

34 views 1 this week
no commentswrite comment
1 2 3 4 5
2 more votes to show rating
add to favorites
×
Save as Personal and add changes to this tab that will be seen only by you. Learn more ›
×
You can save this tab as Personal to edit and correct it or add notes. All changes will be seen only by you. Learn more »
launch autoscroll
font size
0
reset
how to read this tab
guitar tuner
edit
Autoscroll
slow
fast
+/-
esc
set tempo
stop
About this tab version
Full tab of song in appropriate tuning. Can be tuned similarly on a 6 string if heavier strings are used. Was this info helpful? Yes No
Switched - 10 Dead Fingers
Tuning - 7 String Drop A
tabbed by jjhand


[Intro]

E|-------------------------|-------------------------|
B|-------------------------|-------------------------|
G|-------------------------|-------------------------|
D|-------------------------|-------------------------| play 3x
A|-------------------------|-------------------------|
E|----5--5--5--5--3--3--3--|-3--1--1-----3-----------|
A|-0-----------------------|----------3-----1-----1--|

E|-------------------------|-------------------------|
B|-------------------------|-------------------------|
G|-2~----2~----2~----2~----|-------------------------| <- Top notes are 
D|-------------------------|-------------------------|    Guitar 2
A|-7-----------------------|-------------------------|
E|-5-----6-----5-----1-----|-------------------------|
A|-------6-----5-----1-----|-------------------------|



[Verse]

E|-------------------------|-------------------------|
B|-------------------------|-------------------------|
G|----2--2--2--2--2--2--2--|-2--2--2--2--------------|
D|-------------------------|-------------------------|
A|-------------------------|-------------------------| play 4x
E|-0-----------------------|-------------1--1--1--1--|
A|-0-----------------------|-------------1--1--1--1--|



[Verse Riff 2]

   Guitar 1
E|-------------------------|-------------------------|
B|-------------------------|-------------------------|
G|-2--4-ring---------------|-------------------------|
D|-------------------------|-------------------------| play 4x
A|-------------------------|-------------------------|
E|-------------------------|-------------------------|
A|-------------------------|-------------------------|
 |
 | Guitar 2
E|-------------------------|-------------------------|
B|-------------------------|-------------------------|
G|-------------------------|-------------------------|
D|-------------------------|-------------------------| play 4x
A|-------------------------|-------------------------|
E|----5--5--5--5--3--3--3--|-3--1--1-----3-----------|
A|-0-----------------------|----------3-----1-----1--|



[Prechorus]

E|-------------------------|--------------------------|------------------------|
B|-------------------------|--------------------------|------------------------|
G|-------------------------|--------------------------|------------------------|
D|-------------------------|--------------------------|------------------------|
A|-------------------------|----------------------3---|------------------------|
E|-2-----2--------2--------|-3-----2-----2--3--2--1---|-------2----------2-----|
A|-2-----2--------2--------|-3-----2-----2--3--2------|-------2----------2-----|

E|-------------------------|------------------------|-------------------------|
B|-------------------------|------------------------|-------------------------|
G|-------------------------|------------------------|-------------------------|
D|-------------------------|------------------------|-------------------------|
A|-------------------------|------------------------|----------------------3--|
E|-3-----2-----2--3--2--0--|-------2----------2-----|-3-----2-----2--3--2--1--|
A|-3-----2-----2--3--2--0--|-------2----------2-----|-3-----2-----2--3--2-----|

E|-------------------------|
B|-------------------------|
G|-------------------------|
D|-------------------------|
A|-------------------------|
E|-2-----2--------2--------|   brief rest & flange effect
A|-2-----2--------2--------|



[Chorus]

E|-----------------------|-----------------------|
B|-----------------------|-----------------------|
G|-----------------------|-----------------------|
D|-----------------------|-----------------------| play 3x
A|-----------------------|-----------------------|
E|-3--5--3--0------3--5--|-3--0------3--5--3-----|
A|-3--5--3--0------3--5--|-3--0------3--5--3-----|

E|-----------------------|-----------------------|
B|-----------------------|-----------------------|
G|-----------------------|-----------------------|
D|-----------------------|-----------------------|
A|-7---------------------|-----------------------|
E|-5-------6-------5-----|-1-------4----------1--|
A|---------6-------5-----|-1-------4----------1--|



[Verse 2]  
   both parts
E|-------------------------|-------------------------|
B|-------------------------|-------------------------|
G|----2--2--2--2--2--2--2--|-2--2--2--2--------------|
D|-------------------------|-------------------------|
A|-------------------------|-------------------------| play 4x
E|-0-----------------------|-------------1--1--1--1--|
A|-0-----------------------|-------------1--1--1--1--|



[Verse Riff 2]

   Guitar 1
E|-------------------------|-------------------------|
B|-------------------------|-------------------------|
G|-2--4-ring---------------|-------------------------|
D|-------------------------|-------------------------| play 2x
A|-------------------------|-------------------------|
E|-------------------------|-------------------------|
A|-------------------------|-------------------------|
 |
 | Guitar 2
E|-------------------------|-------------------------|
B|-------------------------|-------------------------|
G|-------------------------|-------------------------|
D|-------------------------|-------------------------| play 2x
A|-------------------------|-------------------------|
E|----5--5--5--5--3--3--3--|-3--1--1-----3-----------|
A|-0-----------------------|----------3-----1-----1--|



[Prechorus 2]

E|-------------------------|--------------------------|------------------------|
B|-------------------------|--------------------------|------------------------|
G|-------------------------|--------------------------|------------------------|
D|-------------------------|--------------------------|------------------------|
A|-------------------------|----------------------3---|------------------------|
E|-2-----2--------2--------|-3-----2-----2--3--2--1---|-------2----------2-----|
A|-2-----2--------2--------|-3-----2-----2--3--2------|-------2----------2-----|

E|-------------------------|------------------------|-------------------------|
B|-------------------------|------------------------|-------------------------|
G|-------------------------|------------------------|-------------------------|
D|-------------------------|------------------------|-------------------------|
A|-------------------------|------------------------|----------------------3--|
E|-3-----2-----2--3--2--0--|-------2----------2-----|-3-----2-----2--3--2--1--|
A|-3-----2-----2--3--2--0--|-------2----------2-----|-3-----2-----2--3--2-----|

E|-------------------------|
B|-------------------------|
G|-------------------------|
D|-------------------------|
A|-------------------------|
E|-2-----2--------2--------|   brief rest & flange effect
A|-2-----2--------2--------|



[Chorus 2]

E|-----------------------|-----------------------|
B|-----------------------|-----------------------|
G|-----------------------|-----------------------|
D|-----------------------|-----------------------| play 3x
A|-----------------------|-----------------------|
E|-3--5--3--0------3--5--|-3--0------3--5--3-----|
A|-3--5--3--0------3--5--|-3--0------3--5--3-----|

E|-----------------------|-----------------------|
B|-----------------------|-----------------------|
G|-----------------------|-----------------------|
D|-----------------------|-----------------------|
A|-7---------------------|-----------------------|
E|-5-------6-------5-----|-3-------1-------------|
A|---------6-------5-----|-3-------1-------------|


E|-----------------------|-----------------------|
B|-----------------------|-----------------------|
G|-----------------------|-----------------------|
D|-----------------------|-----------------------| play 3x
A|-----------------------|-----------------------|
E|-3--5--3--0------3--5--|-3--0------3--5--3-----|
A|-3--5--3--0------3--5--|-3--0------3--5--3-----|

E|-----------------------|-----------------------|
B|-----------------------|-----------------------|
G|-----------------------|-----------------------|
D|-----------------------|-----------------------|
A|-7---------------------|-----------------------|
E|-5-------6-------5-----|-3---------------------|
A|---------6-------5-----|-3---------------------|



[Bridge]
E|-------------------------|-------------------------|-------------------------|-------------------------|
B|-------------------------|-------------------------|-------------------------|-------------------------|
G|-------------------------|-------------------------|-------------------------|-------------------------|
D|-------------------------|-------------------------|-------------------------|-------------------------|
A|-------------------------|-------------------------|-------------------------|-------------------------|
E|----5--3-----5--3-----5--|-3-----5--3-----5--3-----|-5--3-----5--3-----5--3--|----5--3-----5-----5-----|
A|-0--------0--------0-----|----0--------0--------0--|-------0--------0--------|-0--------0--------------|


E|-------------------------|-------------------------|
B|-------------------------|-------------------------|
G|-------------------------|-------------------------|
D|-------------------------|-------------------------|  play 3x
A|-------------------------|-------------------------|
E|----5--3-----5--3-----5--|-3-----------------------|
A|-0--------0--------0-----|-------3--5-5b6-5--3-----|

E|-------------------------|-------------------------|
B|-------------------------|-------------------------|
G|-------------------------|-------------(2~)--------|
D|-------------------------|-------------------------|
A|-------------------------|-------------------------|
E|----5--3-----5--3-----5--|-3-----------------------|
A|-0--------0--------0-----|-------x-3---------------|

E|-------------------------|-------------------------|
B|-------------------------|-------------------------|
G|-------------------------|-------------------------|
D|-------------------------|-------------------------|  play 4x
A|----7--5-----7--5-----7--|-5-----------------------|
E|----5--3-----5--3-----5--|-3-----3--5-5b6-5--3-----|
A|-0--------0--------0-----|-------3--5-5b6-5--3-----|

E|-----------------------|-----------------------|
B|-----------------------|-----------------------|
G|-----------------------|-----------------------|
D|-----------------------|-----------------------|
A|-----------------------|-----------------------|
E|-3---------------------|-1---------------------|
A|-3---------------------|-1---------------------|



[Lsat Chorus]

E|-----------------------|-----------------------|
B|-----------------------|-----------------------|
G|-----------------------|-----------------------|
D|-----------------------|-----------------------| play 3x
A|-----------------------|-----------------------|
E|-3--5--3--0------3--5--|-3--0------3--5--3-----|
A|-3--5--3--0------3--5--|-3--0------3--5--3-----|

E|-----------------------|-----------------------|
B|-----------------------|-----------------------|
G|-----------------------|-----------------------|
D|-----------------------|-----------------------|
A|-7---------------------|-----------------------|
E|-5-------6-------5-----|-3-------1--------0----|
A|---------6-------5-----|-3-------1--------0----|

E|-----------------------|-----------------------|
B|-----------------------|-----------------------|
G|-----------------------|-----------------------|
D|-----------------------|-----------------------| 
A|-----------------------|-----------------------|
E|-3--5--3--0------3--5--|-----------3--5--3-----|
A|-3--5--3--0------3--5--|-----------3--5--3-----|

E|-----------------------|-----------------------|
B|-----------------------|-----------------------|
G|-----------------------|-----------------------|
D|-----------------------|-----------------------| 
A|-----------------------|-----------------------|
E|-3--5--3--0------3--5--|-3--0------3--5--3-----|
A|-3--5--3--0------3--5--|-3--0------3--5--3-----|
                                     PM*****

E|-----------------------|-----------------------|
B|-----------------------|-----------------------|
G|-----------------------|-----------------------|
D|-----------------------|-----------------------| 
A|-----------------------|-----------------------|
E|-3--5--3--0------3--5--|-3--0------3--5--3-----|
A|-3--5--3--0------3--5--|-3--0------3--5--3-----|

E|-----------------------|-----------------------|
B|-----------------------|-----------------------|
G|-----------------------|-----------------------|
D|-----------------------|-----------------------|
A|-7---------------------|-----------------------|
E|-5-------6-------5-----|-3-------1-------------|
A|---------6-------5-----|-3-------1-------------|



[Outro]
   2 guitars
E|-------------------------|-------------------------|
B|-------------------------|-------------------------|
G|-------------------------|-------------------------|
D|-------------------------|-------------------------| play 3x
A|-------------------------|-------------------------|
E|----5--5--5--5--3--3--3--|-3--1--1--0--------------|
A|-------------------------|-------------1--1--1-----|

E|-------------------------|-------------------------|
B|-------------------------|-------------------------|
G|-------------------------|-------------------------|
D|-------------------------|-------------------------| 
A|-------------------------|-------------------------|
E|----5--5--5--5--3--3--3--|-3--1--1--0--1--1--1--1--|
A|-------------------------|-------------1--1--1--1--|



************************************

| x   Dead note
| g   Grace note
| (n) Ghost note
| h   Hammer-on
| p   Pull-off
| r   Release
| >   Accented note
| t   Tapping
| b   Bend
| br  Bend release
| pb  Pre-bend
| pbr Pre-bend release
| /   Slide up
| \   Slide down
| ~   Vibrato
| s   Slap
| P   Pop
| PM  Palm mute
| TR  Trill
| N   Tremolo

************************************

            
            
Suggest correction
Creating personal tab
Creating personal tab
You can edit any tab online and save it as your Personal.

You can edit, replace or remove any tab part or add personal notes – all changes will be seen only by you.

Personal tabs can be accessed anytime from any device, even offline.
Learn more »
Give kudos to tab author, rate the tab!
1 2 3 4 5
comments
print report bad tab
guest
You may want to rate the tab now too:
select rating
Wanna post a correction for this tab? Suggest correction