Oops, an error
Loading. Please wait.

Darkening Days tab

19 views 1 this week
no commentswrite comment
1 2 3 4 5
2 more votes to show rating
add to favorites
×
Save as Personal and add changes to this tab that will be seen only by you. Learn more ›
×
You can save this tab as Personal to edit and correct it or add notes. All changes will be seen only by you. Learn more »
launch autoscroll
font size
0
reset
how to read this tab
guitar tuner
edit
Autoscroll
slow
fast
+/-
esc
set tempo
stop
About this tab version
Full tab of Darkening Days for 7 string guitar. Live footage shows one guitarist has a 7 string BC Rich and used chord positions similar to this. Was this info helpful? Yes No
Switched - Darkening Day
Tuning - 7 string Guitar, standard tuned down 1 fret 
tabbed by jjhand



[Intro]
D#|------------------------------|
A#|-0----0-0-0---0---0-0-0---0-0-|
F#|-4/5--5-6-6/7-----------------|
C#|------------------------------|   play 8x
G#|------------------------------|
D#|------------------------------|
A#|------------------------------|

D#|-------------------------------|
A#|-------------------------------|
F#|-------------------------------|
C#|-------------------------------|   play 4x
G#|-------------------------------| 
D#|-2-3-3-4-4/5-2----2--2--2--2---|
A#|-0-1-1-2-2/3-0----0--0--0--0---|
                     PM PM  



[Verse]

D#|-----------0----0----0--0--0--0--|--------------0----0----0--0--0--0-|
A#|-----------12-x-12-x-12-12-12-12-|--------12-x-11-x-11-x-11-11-11-11-|
F#|---------------------------------|-----------------------------------|
C#|---------------------------------|-----------------------------------|
G#|-2----2--------------------------|-2----2----------------------------|
D#|-2----2--------------------------|-2----2----------------------------|
A#|-0----0--------------------------|-0----0----------------------------|
         PM                                PM
    
D#|------------0----0----0--0--0--0-|-------------PH---PH---PH----------|
A#|-----------12-x-12-x-12-12-12-12-|--------12-x-11-x-11-x-11-11-11-11-|
F#|---------------------------------|-----------------------------------|
C#|---------------------------------|-----------------------------------|
G#|-2----2--------------------------|-2----2----------------------------|
D#|-2----2--------------------------|-2----2----------------------------|
A#|-0----0--------------------------|-0----0----------------------------|

repeat Verse


[Prechorus]
D#|------------------------------|
A#|-0----0-0-0---0---0-0-0---0-0-|
F#|-4/5--5-6-6/7-----------------|
C#|------------------------------|   play 4x
G#|------------------------------|
D#|------------------------------|
A#|------------------------------|



[Chorus]
D#|------------------------|---------------------|
A#|------------------------|---------------------|
F#|------------9-----------|---------------------|
G#|-2----------9-----------|---------------------|  play 3x
D#|-2----------7-----------|-8----7----5----3----|
A#|-0----------------------|-6----5----3----1----|

D#|------------------------|--------------------------|
A#|------------------------|--------------------------|
F#|------------9-----------|--------------------------|
G#|-2----------9-----------|--------------------------|
D#|-2----------7-----------|-8\7---7--7--6\5---5--5---|
A#|-0----------------------|-6\5-0-5--5--4\3-0-3--3---|

D#|-------------------------------| 
A#|-------------------------------|
F#|-------------------------------|
C#|-------------------------------|   play 4x
G#|-------------------------------| 
D#|-0h1-1-2-2/3-0----0--0--0--0---|
A#|-0h1-1-2-2/3-0----0--0--0--0---|
                     PM PM  


[Verse 2]
D#|-----------0----0----0--0--0--0--|--------------0----0----0--0--0--0-|
A#|-----------12-x-12-x-12-12-12-12-|--------12-x-11-x-11-x-11-11-11-11-|
F#|---------------------------------|-----------------------------------|
C#|---------------------------------|-----------------------------------|
G#|-2----2--------------------------|-2----2----------------------------|
D#|-2----2--------------------------|-2----2----------------------------|
A#|-0----0--------------------------|-0----0----------------------------|
         PM                                PM
    
D#|------------0----0----0--0--0--0-|-------------PH---PH---PH----------|
A#|-----------12-x-12-x-12-12-12-12-|--------12-x-11-x-11-x-11-11-11-11-|
F#|---------------------------------|-----------------------------------|
C#|---------------------------------|-----------------------------------|
G#|-2----2--------------------------|-2----2----------------------------|
D#|-2----2--------------------------|-2----2----------------------------|
A#|-0----0--------------------------|-0----0----------------------------|

repeat Verse



[Prechorus 2]
D#|------------------------------|
A#|-0----0-0-0---0---0-0-0---0-0-|
F#|-4/5--5-6-6/7-----------------|
C#|------------------------------|   play 4x
G#|------------------------------|
D#|------------------------------|
A#|------------------------------|



[Chorus 2]
D#|------------------------|---------------------|
A#|------------------------|---------------------|
F#|------------------------|---------------------|
C#|------------9-----------|---------------------|
G#|-2----------9-----------|---------------------|  play 3x
D#|-2----------7-----------|-8----7----5----3----|
A#|-0----------------------|-6----5----3----1----|

D#|------------------------|--------------------------|
A#|------------------------|--------------------------|
F#|------------9-----------|--------------------------|
G#|-2----------9-----------|--------------------------|
D#|-2----------7-----------|-8\7---7--7--6\5---5--5---|
A#|-0----------------------|-6\5-0-5--5--4\3-0-3--3---|

D#|------------------------| 
A#|------------------------|
F#|------------------------|
C#|------------------------| 
G#|------------------------| 
D#|--2--2--2--2--2---------|
A#|--0--0--0--0--0---------|
     PM PM PM PM PM 


[Bridge]
D#|------------------------|------------------------|------------------------|------------------------| 
A#|----------7---7-7-5-4---|------------------------|-----------7---7-7-5-4--|------------------------|
F#|--------4---------------|----------4--5--5-4h5---|---------4--------------|---------4-5--5--/14----|
C#|------------------------|------------------------|------------------------|------------------------|
G#|------------------------|------------------------|------------------------|------------------------|
D#|------------------------|------------------------|------------------------|------------------------|
A#|------------------------|------------------------|------------------------|------------------------|

D#|------------------------|------------------------|------------------------|------------------------------| 
A#|----------7---7-7-5-4---|------------------------|-----------7---7-7-5-4--|------------------------------|
F#|--------4---------------|----------4--5--5-4h5---|---------4--------------|------------------------------|
C#|------------------------|------------------------|------------------------|------------------------------|
G#|------------------------|------------------------|------------------------|------------------------------|
D#|------------------------|------------------------|------------------------|------------------------------|
A#|------------------------|------------------------|------------------------|-0h1--1--1/3--0--0h1--1-1/3-0-|


[Heavy Bridge]
D#|--------------------------------| 
A#|--------------------------------|
F#|--------------------------------|
C#|--------------------------------|  
G#|--------------------------------|   play 4x
D#|---3--3--3/5--2----3--3-3/5-2---|
A#|-0h1--1--1/3--0--0h1--1-1/3-0---|


[Outro Chorus]
D#|------------------------|---------------------|
A#|------------------------|---------------------|
F#|------------------------|---------------------|
C#|------------9-----------|---------------------|
G#|-2----------9-----------|---------------------|  repeat throughout until end part
D#|-2----------7-----------|-8----7----5----3----|
A#|-0----------------------|-6----5----3----1----|

2nd part
D#|---------------------------------|---------------------------------| 
A#|-0-0-0-0-0-0-0-0-0-0-0-0-0-0-0-0-|-0-0-0-0-0-0-0-0-0-0-0-0-0-0-0-0-|
F#|-4-4-4-4-4-4-4-4-4-4-4-4-4-4-4-4-|-4\2-2-2-2-2-2-2-2-2-2-2-2-2-2-2-|  play with chorus
C#|---------------------------------|---------------------------------|
G#|---------------------------------|---------------------------------|
D#|---------------------------------|---------------------------------|
A#|---------------------------------|---------------------------------|
    after going through a full chorus, the part shifts the F# notes up an octave

[End]
D#|------------------------|-----------------------|
A#|------------------------|-----------------------|
F#|------------------------|-----------------------|
C#|------------------------|-----------------------|
G#|------------------------|-----------------------|
D#|-8----------7-----------|-5---------------------|
A#|-6----------5-----------|-3---------------------|
    slows down



************************************
KEY
| h   Hammer-on
| p   Pull-off
| r   Release
| b   Bend
| /   Slide up
| \   Slide down
| ~   Vibrato
| PM  Palm mute

************************************

            
            
Suggest correction
Creating personal tab
Creating personal tab
You can edit any tab online and save it as your Personal.

You can edit, replace or remove any tab part or add personal notes – all changes will be seen only by you.

Personal tabs can be accessed anytime from any device, even offline.
Learn more »
Give kudos to tab author, rate the tab!
1 2 3 4 5
comments
print report bad tab
guest
You may want to rate the tab now too:
select rating
Wanna post a correction for this tab? Suggest correction