Oops, an error
Loading. Please wait.

Exterminate tab

25 views 1 this week
no commentswrite comment
1 2 3 4 5
2 more votes to show rating
add to favorites
×
Save as Personal and add changes to this tab that will be seen only by you. Learn more ›
×
You can save this tab as Personal to edit and correct it or add notes. All changes will be seen only by you. Learn more »
launch autoscroll
font size
0
reset
how to read this tab
guitar tuner
edit
Autoscroll
slow
fast
+/-
esc
set tempo
stop
About this tab version
Full guitar tab of song, including all riffs. Please rate or comment. Was this info helpful? Yes No
Switched - Exterminate
Tuning - 7 string standard tuned down 1 fret
tabbed by jjhand



[Intro]

D#|----------12--12-12-12-12-12----------------|-----------12-12-12-12-12-12-12----------------|
A#|--------------------16-16-16-12-11/12-11/12-|-----------------------16-16-16-12-11/12-11/12-|
F#|--------------------------------------------|-----------------------------------------------|
C#|--------------------------------------------|-----------------------------------------------|
G#|--------------------------------------------|-----------------------------------------------|
D#|-0---0-0------------------------------------|-0-0-0-0---------------------------------------|
A#|-0---0-0------------------------------------|-0-0-0-0---------------------------------------|

D#|----------12--12-12-12-12-12----------------|-----------12-12-12-12-12-12-12----------------|
A#|--------------------16-16-16-12-11/12-11/12-|-----------------------16-16-16-12-11/12-11\x--|
F#|--------------------------------------------|-----------------------------------------------|
C#|--------------------------------------------|-----------------------------------------------|
G#|--------------------------------------------|-----------------------------------------------|
D#|-0---0-0------------------------------------|-0-0-0-0---------------------------------------|
A#|-0---0-0------------------------------------|-0-0-0-0---------------------------------------|


D#|-------------------------------------|
A#|-------------------------------------|
F#|-------------------------------------|
C#|-------------------------------------|  play 4x
G#|-8-----------------------------------|
D#|-7-----------------------------------|
A#|-----0--0--0-0-0--0-0-0--0--1p0--6p0-|


D#|-------------------------------------|
A#|-------------------------------------|
F#|-------------------------------------|
C#|-------------------------------------| 
G#|-------------------------------------|
D#|-7TP---------------------------------|
A#|-------------------------------------|
    pick string and rock wah-wah

D#|-------------------------------------|
A#|-------------------------------------|
F#|-------------------------------------|
C#|-------------------------------------| play 2x 
G#|-------------------------------------|
D#|-7-----------------------------------|
A#|-6---6p0--6p0----6p0---6p0-6p0---6p0-|

D#|----------------------------|
A#|----------------------------|
F#|----------------------------|
C#|----------------------------| 
G#|----------------------------|  play 2x
D#|----------------------------|
A#|-0-0-0--0--0-0-0--0--0-0-0--|
    PM***********************


[Verse]

D#|-------------------------------------------|
A#|-------------------------------------------|
F#|-------------------------------------------|
C#|-------------------------------------------|  play 4x 
G#|-------------------------------------------|  with wah
D#|-------------------------------------------|  
A#|-0--1--1--3--1--0--1-----0--1-----1--0--1--|  bend last note on last repeat


D#|----------------------------------------------|
A#|----------------------------------------------|
F#|----------------------------------------------|
C#|----------------------------------------------|
G#|----------------------------------------------|  play 3x
D#|-7--8--8--10--8--7--8-----8--8-----8--7--8----|
A#|-7--8--8--10--8--7--8-----8--8-----8--7--8----|

D#|----------------------------------------------|
A#|----------------------------------------------|
F#|----------------------------------------------|
C#|----------------------------------------------|
G#|----------------------------------------------|  play 3x
D#|-7--8--8--10--8--7--10-----8--8-----8--7--5---|
A#|-7--8--8--10--8--7--10-----8--8-----8--7--5---|



[Prechorus]
   2 parts together (one plays chord, other plays PM open note)
D#|-----------------------------------------|
A#|-----------------------------------------|
F#|-----------------------------------------|
C#|-9---------------------------------------| 
G#|-9---------------------------------------|
D#|-7---------------------------------------|
A#|-0---0---0---0-0-0-0----0-0-0-0----0-0-0-| PM this line



[Chorus]
D#|----------------------------------------------|
A#|----------------------------------------------|
F#|----------------------------------------------|
C#|----------------------------------------------| 
G#|-------------7--7--7--6--6--6--6--------------|
D#|----------------------------------8--7--8--7--|
A#|-0-----0--0-----------------------------------|


D#|----------------------------------------------|
A#|----------------------------------------------|
F#|----------------------------------------------|
C#|----------------------------------------------|  play 4x
G#|----------------------------------------------|
D#|-2-----2--2--7--7--7--6--6--6--6--3--2--3--2--|
A#|-0-----0--0--5--5--5--4--4--4--4--1--0--1--0--|


D#|-------------------------------------|
A#|-------------------------------------|
F#|-------------------------------------|
C#|-------------------------------------| play 4x 
G#|-------------------------------------|
D#|-7-----------------------------------|
A#|-6---6p0--6p0----6p0---6p0-6p0---6p0-|


D#|----------------------------|
A#|----------------------------|
F#|----------------------------|
C#|----------------------------| 
G#|----------------------------|  play 2x
D#|----------------------------|
A#|-0-0-0--0--0-0-0--0--0-0-0--|
    PM***********************



[Verse 2]

D#|----------------------------------------------|
A#|----------------------------------------------|
F#|----------------------------------------------|
C#|----------------------------------------------|
G#|----------------------------------------------|  play 3x
D#|-7--8--8--10--8--7--8-----8--8-----8--7--8----|
A#|-7--8--8--10--8--7--8-----8--8-----8--7--8----|

D#|----------------------------------------------|
A#|----------------------------------------------|
F#|----------------------------------------------|
C#|----------------------------------------------|
G#|----------------------------------------------|  play 3x
D#|-7--8--8--10--8--7--10-----8--8-----8--7--5---|
A#|-7--8--8--10--8--7--10-----8--8-----8--7--5---|



[Prechorus 2]
   2 parts together (one plays chord, other plays PM open note)
D#|-----------------------------------------|
A#|-----------------------------------------|
F#|-----------------------------------------|
C#|-9---------------------------------------| 
G#|-9---------------------------------------|
D#|-7---------------------------------------|
A#|-0---0---0---0-0-0-0----0-0-0-0----0-0-0-| PM this line



[Chorus 2]
D#|----------------------------------------------|
A#|----------------------------------------------|
F#|----------------------------------------------|
C#|----------------------------------------------| 
G#|-------------7--7--7--6--6--6--6--------------| with wah
D#|----------------------------------8--7--8--7--|
A#|-0-----0--0-----------------------------------|


D#|----------------------------------------------|
A#|----------------------------------------------|
F#|----------------------------------------------|
C#|----------------------------------------------|  play 4x
G#|----------------------------------------------|
D#|-2-----2--2--7--7--7--6--6--6--6--3--2--3--2--|
A#|-0-----0--0--5--5--5--4--4--4--4--1--0--1--0--|


D#|-------------------------------------|
A#|-------------------------------------|
F#|-------------------------------------|
C#|-------------------------------------| play 4x 
G#|-------------------------------------|
D#|-7-----------------------------------|
A#|-6---6p0--6p0----6p0---6p0-6p0---6p0-|


D#|----------------------------|
A#|----------------------------|
F#|----------------------------|
C#|----------------------------| 
G#|----------------------------|  play 2x
D#|----------------------------|
A#|-0-0-0--0--0-0-0--0--0-0-0--|
    PM***********************



[Bridge]

D#|----------12--12-12-12-12-12----------------|-----------12-12-12-12-12-12-12----------------|
A#|--------------------16-16-16-12-11/12-11/12-|-----------------------16-16-16-12-11/12-11/12-|
F#|--------------------------------------------|-----------------------------------------------|
C#|--------------------------------------------|-----------------------------------------------|
G#|--------------------------------------------|-----------------------------------------------|
D#|-0---0-0------------------------------------|-0-0-0-0---------------------------------------|
A#|-0---0-0------------------------------------|-0-0-0-0---------------------------------------|    

D#|----------12--12-12-12-12-12----------------|-----------12-12-12-12-12-12-12----------------|
A#|--------------------16-16-16-12-11/12-11/12-|-----------------------16-16-16-12-11/12-11\x--|
F#|--------------------------------------------|-----------------------------------------------|
C#|--------------------------------------------|-----------------------------------------------|
G#|--------------------------------------------|-----------------------------------------------|
D#|-0---0-0------------------------------------|-0-0-0-0---------------------------------------|
A#|-0---0-0------------------------------------|-0-0-0-0---------------------------------------|


D#|-------------------------------------|
A#|-------------------------------------|
F#|-------------------------------------|
C#|-------------------------------------|  play 2x
G#|-8-----------------------------------|
D#|-7-----------------------------------|
A#|-----0--0--0-0-0--0-0-0--0--1p0--6p0-|

D#|-------------------------------------|
A#|-------------------------------------|
F#|-------------------------------------|
C#|-------------------------------------| 
G#|-------------------------------------|
D#|----7-----7----------------------7---|
A#|-0--6--0--6----0-0-0---0---0---0-6-0-|

D#|-------------------------------------|-------------------------------------|
A#|-------------------------------------|-------------------------------------|
F#|-------------------------------------|-------------------------------------|
C#|-------------------------------------|-------------------------------------|
G#|-8-----------------------------------|-------------------------------------|
D#|-7-----------------------------------|-7TP---------------------------------|
A#|-----0--0--0-0-0--0-0-0--0--1p0--6p0-|-------------------------------------|
                                           pcik string and rock wah wah




D#|-------------------------------------|
A#|-------------------------------------|
F#|-------------------------------------|
C#|-------------------------------------| 
G#|-------------------------------------|
D#|-7TP---------------------------------|
A#|-------------------------------------|
    pick string and rock wah-wah



[Chorus 2]
D#|----------------------------------------------|
A#|----------------------------------------------|
F#|----------------------------------------------|
C#|----------------------------------------------|  play 8x
G#|----------------------------------------------|
D#|-2-----2--2--7--7--7--6--6--6--6--3--2--3--2--|
A#|-0-----0--0--5--5--5--4--4--4--4--1--0--1--0--|



[Outro]
   Durng wah part, rhythm guitar plays open PM A# notes 

D#|-------------------------------|-----------------------------|
A#|-------------------------------|-----------------------------|
F#|-------------------------------|-----------------------------|
C#|-------------------------------|-----------------------------| play 2x
G#|-------------------------------|-----------------------------|
D#|-7-----7TP-(wah)---------------|-7TP-------------------------|
A#|-6-----------------------------|-----------------------------|

D#|-----------------------|-------------------------|---------------------------|
A#|-----------------------|-------------------------|---------------------------|
F#|-----------------------|-------------------------|---------------------------|
C#|-----------------------|-------------------------|---------------------------|
G#|-----------------------|-------------------------|---------------------------|
D#|-2----2----2----2------|-7----7TP--(wah)---------|-7TP-----------------------|
A#|-0----0----0----0------|-6-----------------------|---------------------------|

D#|---------------------------------|
A#|---------------------------------|
F#|---------------------------------|
C#|---------------------------------|
G#|---------------------------------|
D#|-2-2-2-2-2-2-2-2-2-2-2-2-2-2-2-2-|
A#|-0-0-0-0-0-0-0-0-0-0-0-0-0-0-0-0-|


************************************

| x   Dead note
| h   Hammer-on
| p   Pull-off
| /   Slide up
| \   Slide down
| PM  Palm mute
| TP  Tremolo Picking - repetitive picking for effect

************************************
Suggest correction
Creating personal tab
Creating personal tab
You can edit any tab online and save it as your Personal.

You can edit, replace or remove any tab part or add personal notes – all changes will be seen only by you.

Personal tabs can be accessed anytime from any device, even offline.
Learn more »
Give kudos to tab author, rate the tab!
1 2 3 4 5
comments
print report bad tab
guest
You may want to rate the tab now too:
select rating
Wanna post a correction for this tab? Suggest correction