Oops, an error
Loading. Please wait.

Last Chance tab

37 views 3 this week
no commentswrite comment
1 2 3 4 5
2 more votes to show rating
add to favorites
×
Save as Personal and add changes to this tab that will be seen only by you. Learn more ›
×
You can save this tab as Personal to edit and correct it or add notes. All changes will be seen only by you. Learn more »
launch autoscroll
font size
0
reset
how to read this tab
guitar tuner
edit
Autoscroll
slow
fast
+/-
esc
set tempo
stop
About this tab version
Full tab for 7-string including all riffs. Was this info helpful? Yes No
Switched - Last Chance
Tuning - 7 string guitar tuned down a full step
tabbed by jjhand

[Intro]
   with flange effects
D|---------------------------------|
A|---------------------------------|
F|---------------------------------|
C|-6-0-6-0-6-0-0-6-0-0-6-0-6-0-0-0-|  play 4x, end short on 4th time
G|---------------------------------|
D|---------------------------------|
A|---------------------------------|

   with heavy distortion
D|---------------------------------|---------------------------------|
A|---------------------------------|---------------------------------|
F|---------------------------------|---------------------------------|
C|---------------------------------|---------------------------------|
G|---------------------------------|---------------------------------|
D|---------------------------8-8-8-|-8\7-----------------------8-8-8-|
A|-6-0-6-0-6-0-0-6-0-0-6-0-6-------|-----6-0-6-0-0-6-0-0-6-0-6-------|

D|---------------------------------|---------------------------------|
A|---------------------------------|---------------------------------|
F|---------------------------------|---------------------------------|
C|---------------------------------|---------------------------------|
G|---------------------------------|---------------------------------|
D|---------------------------8-8-8-|-8\7-----------------------8-8\7-|
A|-----6-0-6-0-0-6-0-0-6-0-6-------|-----6-0-6-0-0-6-0-0-6-0-6-------|


[Verse]

   Guitar 1 with flange effects
D|---------------------------------|
A|---------------------------------|
F|---------------------------------|
C|-6-0-6-0-6-0-0-6-0-0-6-0-6-0-0-0-|  repeat throughout
G|---------------------------------|
D|---------------------------------|
A|---------------------------------|

   Guitar 2, after 4x through other part
D|---------------------------------|
A|---------------------------------|
F|---------------------------------|
C|---------------------------------|
G|-5-5-3-3-6-----------------------|  play 3x
D|-----------5-5-5-5-4-4-4-4-------|
A|---------------------------1-4-4-|

D|---------------------------------|
A|---------------------------------|
F|---------------------------------|
C|---------------------------------|
G|-5-5-3-3-6-----------------------|
D|-----------5-5-5-5-4-4-4-4-------|
A|---------------------------------|



[Prechorus]

   strum chords below in 8ths
D|------------------|------------------|-----------------|------------------|
A|------------------|------------------|-----------------|------------------|
F|------------------|------------------|-----------------|------------------|
C|------------------|------------------|-----------------|------------------|
G|-2----------------|-4----------------|-5---------------|-7----------------|
D|-2----------------|-4----------------|-5---------------|-7----------------|
A|-0----------------|-2----------------|-3---------------|-5----------------|

D|------------------|------------------|-----------------|------------------|
A|------------------|------------------|-----------------|------------------|
F|------------------|------------------|-----------------|------------------|
C|------------------|-4----------------|-5---------------|-7----------------|
G|-2----------------|-4----------------|-5---------------|-7----------------|
D|-2----------------|-2----------------|-3---------------|-5----------------|
A|-0----------------|------------------|-----------------|------------------|



[Chorus]

D|---------------------------------|
A|---------------------------------|
F|---------------------------------|
C|---------------------------------|  
G|---------------------------------|
D|---------------------------------|
A|-6-0-6-0-6-0-0-6-0-0-6-0-6-0-----|


D|---------------------------------|---------------------------------|
A|---------------------------------|---------------------------------|
F|---------------------------------|---------------------------------|
C|---------------------------------|---------------------------------|
G|---------------------------------|---------------------------------|
D|---------------------------8-8-8-|-8\7-----------------------8-8-8-|
A|-6-0-6-0-6-0-0-6-0-0-6-0-6-------|-----6-0-6-0-0-6-0-0-6-0-6-------|

D|---------------------------------|---------------------------------|
A|---------------------------------|---------------------------------|
F|---------------------------------|---------------------------------|
C|---------------------------------|---------------------------------|
G|---------------------------------|---------------------------------|
D|---------------------------8-8-8-|-8\7-----------------------8-8\7-|
A|-----6-0-6-0-0-6-0-0-6-0-6-------|-----6-0-6-0-0-6-0-0-6-0-6-------|


[Verse 2]

   Guitar 1 with flange effects
D|---------------------------------|
A|---------------------------------|
F|---------------------------------|
C|-6-0-6-0-6-0-0-6-0-0-6-0-6-0-0-0-|  repeat throughout
G|---------------------------------|
D|---------------------------------|
A|---------------------------------|

   Guitar 2, after 4x through other part
D|---------------------------------|---------------------------------|
A|---------------------------------|---------------------------------|
F|---------------------------------|---------------------------------|
C|---------------------------------|---------------------------------|
G|-5-5-3-3-6-----------------------|-5-5-3-3-6-----------------------|
D|-----------5-5-5-5-4-4-4-4-------|-----------5-5-5-5-4-4-4-4-------|
A|---------------------------1-4-4-|---------------------------------|



[Prechorus 2]

   strum chords below in 8ths
D|------------------|------------------|-----------------|------------------|
A|------------------|------------------|-----------------|------------------|
F|------------------|------------------|-----------------|------------------|
C|------------------|------------------|-----------------|------------------|
G|-2----------------|-4----------------|-5---------------|-7----------------|
D|-2----------------|-4----------------|-5---------------|-7----------------|
A|-0----------------|-2----------------|-3---------------|-5----------------|

D|------------------|------------------|-----------------|------------------|
A|------------------|------------------|-----------------|------------------|
F|------------------|------------------|-----------------|------------------|
C|------------------|-4----------------|-5---------------|-7----------------|
G|-2----------------|-4----------------|-5---------------|-7----------------|
D|-2----------------|-2----------------|-3---------------|-5----------------|
A|-0----------------|------------------|-----------------|------------------|

D|------------------|------------------|-----------------|------------------|
A|------------------|------------------|-----------------|------------------|
F|------------------|------------------|-----------------|------------------|
C|------------------|------------------|-----------------|------------------|
G|-2----------------|-4----------------|-5---------------|-7----------------|
D|-2----------------|-4----------------|-5---------------|-7----------------|
A|-0----------------|-2----------------|-3---------------|-5----------------|

D|------------------|------------------|-----------------|------------------|-------|
A|------------------|------------------|-----------------|------------------|-------|
F|------------------|------------------|-----------------|------------------|-------|
C|------------------|-4----------------|-5---------------|-8----------------|-------|
G|-2----------------|-4----------------|-5---------------|-8----------------|-------|
D|-2----------------|-2----------------|-3---------------|-6----------------|-------|
A|-0----------------|------------------|-----------------|------------------|-1-0---|



[Bridge]
D|-------------------------------|---------------------------|
A|-------------------------------|---------------------------|
F|-------------------------------|---------------------------|
C|-------------------------------|---------------------------| play 2x
G|-------------------------------|---------------------------|
D|-------------------------------|---------------------------|
A|-1-0--0-1-0-4-0--0--0----------|-----------------0-1-4-1---|


D|-------------------------------|-------------------------------|
A|-------------------------------|-------------------------------|
F|-------------------------------|-------------------------------|
C|-------------------------------|-------------------------------|
G|-------------------------------|-------------------------------|
D|-------------------------------|-------------------------------|
A|-1-0--0-1-0-4-0--0--0-1-0-4-0--|--0--0-1-0-4-0---0---0-1-4-1---| 
        PM  PM        PM  PM           PM  PM

D|-------------------------------|-------------------------------|
A|-------------------------------|-------------------------------|
F|-------------------------------|-------------------------------|
C|-------------------------------|-------------------------------|
G|-------------------------------|-------------------------------|
D|-------------------------------|-------------------------------|
A|-1-0--0-1-0-4-0--0--0-1-0-4-0--|--0--0---------------0-1-4-1---| 
        PM  PM        PM  PM        


[Bridge 2]
   let notes ring
D|-------------------------------|-------------------------------|
A|-------------------------------|-------------------------------|
F|-------------------------------|-------------------------------|
C|-------------------------------|-------------------------------|
G|-------------------------------|-------------------------------| play 4x
D|-------------------------------|-------------------------------|
A|-1-0--0-1-0-4-0--0--0-1-0-4-0--|--0--0-1-0-4-0---0---0-1-4-1---| 


D|---------------------------------|
A|---------------------------------|
F|---------------------------------|
C|-4----0----2---------------------|  
G|-4----0----2---------------------|
D|-2---------0---------------------|
A|---------------------------------|
     


[Last Chorus]
D|---------------------------------|---------------------------------|
A|---------------------------------|---------------------------------|
F|---------------------------------|---------------------------------|
C|---------------------------------|---------------------------------|
G|---------------------------------|---------------------------------|
D|---------------------------8-8-8-|-8\7-----------------------8-8-8-|
A|-6-0-6-0-6-0-0-6-0-0-6-0-6-------|-----6-0-6-0-0-6-0-0-6-0-6-------|
  "say goodbye..."

D|---------------------------------|---------------------------------|
A|---------------------------------|---------------------------------|
F|---------------------------------|---------------------------------|
C|---------------------------------|---------------------------------|
G|---------------------------------|---------------------------------|
D|---------------------------8-8-8-|-8\7-----------------------8-8\7-|
A|-----6-0-6-0-0-6-0-0-6-0-6-------|-----6-0-6-0-0-6-0-0-6-0-6-------|

D|---------------------------------|
A|---------------------------------|
F|---------------------------------|
C|---------------------------------|  
G|-3--2--2-------------------------| play 4x
D|-3--2--2-------------------------|
A|-1--0--0-------------------------|

D|---------------------------------|---------------------------------|
A|---------------------------------|---------------------------------|
F|---------------------------------|---------------------------------|
C|---------------------------------|---------------------------------|
G|---------------------------------|---------------------------------| play 7x
D|---------------------------8-8-8-|-8\7-----------------------8-8-8-|
A|-6-0-6-0-6-0-0-6-0-0-6-0-6-------|-----6-0-6-0-0-6-0-0-6-0-6-------|
                           "my last chance..."

D|-------------------------------------------|--------------------------------|
A|-------------------------------------------|--------------------------------|
F|-------------------------------------------|--------------------------------|
C|-------------------------------------------|-4----0----2--------------------|
G|-8--8----8--8----8--8----8--8----8----8----|-4----0----2--------------------|
D|-7--7----7--7----7--7----7--7----7----7----|-2---------0--------------------|
A|-6--6----6--6----6--6----6--6----6----6----|--------------------------------|



************************************
Key
| h   Hammer-on
| p   Pull-off
| r   Release
| b   Bend
| br  Bend release
| /   Slide up
| \   Slide down
| ~   Vibrato
| PM  Palm mute

************************************

            
            
Suggest correction
Creating personal tab
Creating personal tab
You can edit any tab online and save it as your Personal.

You can edit, replace or remove any tab part or add personal notes – all changes will be seen only by you.

Personal tabs can be accessed anytime from any device, even offline.
Learn more »
Give kudos to tab author, rate the tab!
1 2 3 4 5
comments
print report bad tab
guest
You may want to rate the tab now too:
select rating
Wanna post a correction for this tab? Suggest correction