Oops, an error
Loading. Please wait.

Wrongside tab

22 views 1 this week
no commentswrite comment
1 2 3 4 5
2 more votes to show rating
add to favorites
×
Save as Personal and add changes to this tab that will be seen only by you. Learn more ›
×
You can save this tab as Personal to edit and correct it or add notes. All changes will be seen only by you. Learn more »
launch autoscroll
font size
0
reset
how to read this tab
guitar tuner
edit
Autoscroll
slow
fast
+/-
esc
set tempo
stop
About this tab version
Full song tab of most distinct guitar parts. Was this info helpful? Yes No
Switched - Wrongside
Tuning - 7 string Drop G# (Low B -> G#, all others down 1 fret) 
tabbed by jjhand

[Intro]

D#|-8----10----8----7--8--7---|
A#|---------------------------|
F#|---------------------------|
C#|---------------------------| play 5x
G#|---------------------------|
D#|---------------------------|
G#|---------------------------|


D#|----------------------|---------------------|-------------------------|------------------------|
A#|----------------------|---------------------|-------------------------|------------------------|
F#|----------------------|---------------------|-------------------------|------------------------|
C#|----------------------|---------------------|-------------------------|------------------------|  play 2x
G#|-1--------------------|-1-------------------|-------------------------|------------------------|
D#|-1--------------------|-1-------------------|-------------------------|-6--5--5--1--3--1--0----|
G#|-1-------0-0-0-0-1----|-1------0-0-0-0-1----|-------------------------|-6--5--5--1--3--1--0----|


[Verse]

D#|-------------------------|
A#|-------------------------|
F#|-------------------------|
C#|-------------------------| play 4x
G#|-------------------------|
D#|-------------------------| 
G#|-4--4--4--4--4--4--4--4--| eighth notes

D#|-------------------------|-------------------------|-------------------------|----------------------|
A#|-------------------------|-------------------------|-------------------------|----------------------|
F#|-------------------------|-------------------------|-------------------------|----------------------|
C#|-------------------------|-------------------------|-------------------------|----------------------|
G#|-------------------------|-------------------------|-------------------------|----------------------|
D#|-------------------------|-------------------------|-------------------------|----------------------|
G#|-0--0--0--0--0--0--0--0--|-0--0--0--0--0--0--0--0--|-0--0--0--0--0--0--0--0--|-0--0--0--0--0--------|

D#|-------------------------|-------------------------|-------------------------|-------------------------|
A#|-------------------------|-------------------------|-------------------------|-------------------------|
F#|-------------------------|-------------------------|-------------------------|-------------------------|
C#|-4--4--4--4--4--4--4--4--|-4--4--4--4--4--4--4--4--|-------------------------|-------------------------|
G#|-4--4--4--4--4--4--4--4--|-4--4--4--4--4--4--4--4--|-4--4--4--4--4--4--4--4--|-4--4--4--4--4--4--4--4--|
D#|-2--2--2--2--2--2--2--2--|-2--2--2--2--2--2--2--2--|-0--0--0--0--0--0--0--0--|-0--0--0--0--0--0--0--0--|
G#|-------------------------|-------------------------|-0--0--0--0--0--0--0--0--|-0--0--0--0--0--0--0--0--|

D#|-------------------------|-------------------------|-------------------------|
A#|-------------------------|-------------------------|-------------------------|
F#|-------------------------|-------------------------|-------------------------|
C#|-4--4--4--4--4--4--4--4--|-4--4--4--4--4--4--4--4--|-------------------------|
G#|-4--4--4--4--4--4--4--4--|-4--4--4--4--4--4--4--4--|-4-----------------------|
D#|-2--2--2--2--2--2--2--2--|-2--2--2--2--2--2--2--2--|-0-----------------------|
G#|-------------------------|-------------------------|-0-----------------------|



[Prechorus]

D#|-------------------------|
A#|-------------------------|
F#|-------------------------|
C#|-------------------------|  play 2x
G#|-------------------------|
D#|-1-1-1-1-----------------|
G#|-1-1-1-1-1--0--1p0-------|


[Chorus]

D#|----------------------|---------------------|-------------------------|------------------------|
A#|----------------------|---------------------|-------------------------|------------------------|
F#|----------------------|---------------------|-------------------------|------------------------|
C#|----------------------|---------------------|-------------------------|------------------------|  play 4x
G#|-1--------------------|-1-------------------|-------------------------|------------------------|
D#|-1--------------------|-1-------------------|-------------------------|-6--5--5--1--3--1--0----|
G#|-1-------0-0-0-0-1----|-1------0-0-0-0-1----|-------------------------|-6--5--5--1--3--1--0----|


D#|--------------------------------------------------|
A#|--------------------------------------------------|
F#|--------------------------------------------------|
C#|--------------------------------------------------|  play 2x
G#|--------------------------------------------------|
D#|--------------------------------------------------|
G#|-2.2NH-2.2NH-2.2NH-2.2NH-2.2NH-2.2NH-2.2NH-2.2NH--|


[Verse 2 Intro]

D#|-------------------------|
A#|-------------------------|
F#|-------------------------|
C#|-------------------------| play 4x
G#|-------------------------|
D#|-------------------------| 
G#|-4--4--4--4--4--4--4--4--| eighth notes
  
D#|-------------------------|-------------------------|-------------------------|----------------------|
A#|-------------------------|-------------------------|-------------------------|----------------------|
F#|-------------------------|-------------------------|-------------------------|----------------------|
C#|-------------------------|-------------------------|-------------------------|----------------------|
G#|-------------------------|-------------------------|-------------------------|----------------------|
D#|-------------------------|-------------------------|-------------------------|----------------------|
G#|-0--0--0--0--0--0--0--0--|-0--0--0--0--0--0--0--0--|-0--0--0--0--0--0--0--0--|-0--0--0--0--0--------|

Repeat Verse 2 Intro


[Verse 2 Riff 2]
D#|-------------------------|-------------------------|-------------------------|-------------------------|
A#|-------------------------|-------------------------|-------------------------|-------------------------|
F#|-------------------------|-------------------------|-------------------------|-------------------------|
C#|-4--4--4--4--4--4--4--4--|-4--4--4--4--4--4--4--4--|-------------------------|-------------------------|
G#|-4--4--4--4--4--4--4--4--|-4--4--4--4--4--4--4--4--|-4--4--4--4--4--4--4--4--|-4--4--4--4--4--4--4--4--|
D#|-2--2--2--2--2--2--2--2--|-2--2--2--2--2--2--2--2--|-0--0--0--0--0--0--0--0--|-0--0--0--0--0--0--0--0--|
G#|-------------------------|-------------------------|-0--0--0--0--0--0--0--0--|-0--0--0--0--0--0--0--0--|

D#|-------------------------|-------------------------|-------------------------|-------------------------|
A#|-------------------------|-------------------------|-------------------------|-------------------------|
F#|-------------------------|-------------------------|-------------------------|-------------------------|
C#|-4--4--4--4--4--4--4--4--|-4--4--4--4--4--4--4--4--|-------------------------|-------------------------|
G#|-4--4--4--4--4--4--4--4--|-4--4--4--4--4--4--4--4--|-4--------4--------4-----|------4------4-----4-----|
D#|-2--2--2--2--2--2--2--2--|-2--2--2--2--2--2--2--2--|-0--------0--------0-----|------0------0-----0-----|
G#|-------------------------|-------------------------|-0--------0--------0-----|------0------0-----0-----|


[Prechorus]

D#|-------------------------|
A#|-------------------------|
F#|-------------------------|
C#|-------------------------|  play 2x
G#|-------------------------|
D#|-1-1-1-1-----------------|
G#|-1-1-1-1-1--0--1p0-------|


[Chorus]

D#|----------------------|---------------------|-------------------------|------------------------|
A#|----------------------|---------------------|-------------------------|------------------------|
F#|----------------------|---------------------|-------------------------|------------------------|
C#|----------------------|---------------------|-------------------------|------------------------|  play 4x
G#|-1--------------------|-1-------------------|-------------------------|------------------------|
D#|-1--------------------|-1-------------------|-------------------------|-6--5--5--1--3--1--0----|
G#|-1-------0-0-0-0-1----|-1------0-0-0-0-1----|-------------------------|-6--5--5--1--3--1--0----|

D#|-------------------------|
A#|-------------------------|
F#|-------------------------|
C#|-------------------------|
G#|-1---------------------1-|
D#|-1---------------------1-|
G#|-1---------------------1-|


[Bridge]
D#|-------------------------|------------------------|-------------------------|----------------------|
A#|-------------------------|------------------------|-------------------------|----------------------|
F#|-------------------------|------------------------|-------------------------|----------------------|
C#|-------------------------|------------------------|-------------------------|----------------------|
G#|-1-----------------------|-------------------1----|-1-----------------------|-------------------1--|
D#|-1-----------------------|-------------------1----|-1-----------------------|-------------------1--|
G#|-1--1--1--1--2--1--2--1--|-1--1--1--6--5--1--1----|-1--1--1--1--2--1--2--1--|-1--1--1--0--0--0--1--|
    play 2x with PM throughout 

D#|-------------------------|-------------------------|-------------------------|-------------------------|
A#|-------------------------|-------------------------|-------------------------|-------------------------|
F#|-------------------------|-------------------------|-------------------------|-------------------------|
C#|-------------------------|-------------------------|-------------------------|-------------------------|
G#|-------------------------|-------------------------|-------------------------|-------------------------|
D#|-------------------------|-------------------------|-------------------------|-------------------------|
G#|-1--1--1--1--2--1--2--1--|-1--1--1--6--5--1--1--1--|-1--1--1--1--2--1--2--1--|-1--1--1--0--0--0--0--1--|

D#|-------------------------|-------------------------|-------------------------|-------------------------|
A#|-------------------------|-------------------------|-------------------------|-------------------------|
F#|-------------------------|-------------------------|-------------------------|-------------------------|
C#|-------------------------|-------------------------|-------------------------|-------------------------|
G#|-------------------------|-------------------------|-------------------------|-------------------------|
D#|-------------------------|-------------------------|-------------------------|-------------------------|
G#|-1--1--1--1--2--1--2--1--|-1--1--1--6--5--1--1--1--|-1--1--1--1--2--1--2--1--|-1--1--1--0--0-----------|


D#|-------------------------|------------------------|-------------------------|-------------------------|
A#|-------------------------|------------------------|-------------------------|-------------------------|
F#|-------------------------|------------------------|-------------------------|-------------------------|
C#|-------------------------|------------------------|-------------------------|-------------------------|
G#|-------------------------|------------------------|-------------------------|-------------------------|
D#|-1--1--1--1--2--1--2--1--|-1--1--1--6--5--1--1----|-1--1--1--1--2--1--2--1--|-1--1--1--0--0--0--0--1--|
G#|-1--1--1--1--2--1--2--1--|-1--1--1--6--5--1--1----|-1--1--1--1--2--1--2--1--|-1--1--1--0--0--0--0--1--|
    play 2x

    brief rest - drum fill


[Outro]

D#|----------------------|---------------------|-------------------------|------------------------|
A#|----------------------|---------------------|-------------------------|------------------------|
F#|----------------------|---------------------|-------------------------|------------------------|
C#|----------------------|---------------------|-------------------------|------------------------|  play 4x
G#|-1--------------------|-1-------------------|-------------------------|------------------------|
D#|-1--------------------|-1-------------------|-------------------------|-6--5--5--1--3--1--0----|
G#|-1-------0-0-0-0-1----|-1------0-0-0-0-1----|-------------------------|-6--5--5--1--3--1--0----|

D#|-------------------------|
A#|-------------------------|
F#|-------------------------|
C#|-------------------------|  play 2x
G#|-------------------------|
D#|-1-1-1-1-----------------|
G#|-1-1-1-1-1--0--1p0-------|



****************************
KEY

p   pull-off
NH  Natural Harmonic

****************************
Suggest correction
Creating personal tab
Creating personal tab
You can edit any tab online and save it as your Personal.

You can edit, replace or remove any tab part or add personal notes – all changes will be seen only by you.

Personal tabs can be accessed anytime from any device, even offline.
Learn more »
Give kudos to tab author, rate the tab!
1 2 3 4 5
comments
print report bad tab
guest
You may want to rate the tab now too:
select rating
Wanna post a correction for this tab? Suggest correction