Oops, an error
Loading. Please wait.

24 Tab

version 2
version 2

Whole song

Interactive

25,614 views 24 this week
1 commentread comment
1 2 3 4 5
excellent!
x 12
add to favorites
launch autoscroll
font size
0
reset
how to read this tab
guitar tuner
Tab Pro tools
  • play this tab
  • loop segment
  • change instrument
  • show fretboard
  • metronome
×
Best way to learn
"24"
Autoscroll
slow
fast
+/-
esc
set tempo
stop
Contributor
Switchfoot
Twenty-Four
The Beautiful Letdown -- 2003

Standard Tuning (E A D G B e)
*Chords are listed at the bottom of song

Verse 1
“twenty-four oceans…”
e|-----------------------------------------------------------------------|
B|---0--0---0--0---0--0---0--0--0-0--0-0--0-0--0-0---0--0---0--0---0--0--|
G|---0--0---0--0---0--0---0--0--0-0--0-0--0-0--0-0---0--0---0--0---0--0--|
D|---7--7---9--9---7--7---9--9--7-7--9-9--7-7--9-9---9--9--10-10---9--9--|
A|--10-10--10-10--10-10--10-10--x-x--x-x--x-x--x-x---x--x---x--x---x--x--|
E|------------------------------8-8--8-8--8-8--8-8--10-10--10-10--10-10--|

e|-------------------------------------|
B|---0--0---0--0---0--0---0--0---0--0--|
G|---0--0---0--0---0--0---0--0---0--0--|
D|--10-10---7--7---9--9---7--7---9--9--|
A|---x--x--10-10--10-10--10-10--10-10--|
E|--10-10------------------------------|

“twenty-four finds me…”
e|-----------------------------------------------------------------------|
B|---0--0---0--0---0--0---0--0--0-0--0-0--0-0--0-0---0--0---0--0---0--0--|
G|---0--0---0--0---0--0---0--0--0-0--0-0--0-0--0-0---0--0---0--0---0--0--|
D|---7--7---9--9---7--7---9--9--7-7--9-9--7-7--9-9---9--9--10-10---9--9--|
A|--10-10--10-10--10-10--10-10--x-x--x-x--x-x--x-x---x--x---x--x---x--x--|
E|---0--0---0--0---0--0---0--0--8-8--8-8--8-8--8-8--10-10--10-10--10-10--|

e|----------------------------|
B|---0--0--0-0--0-0--3-3-3-3--|
G|---0--0--2-2--4-4--2-2-2-2--|
D|--10-10--0-0--0-0--0-0-0-0--|
A|---x--x--x-x--x-x--x-x-x-x--|
E|--10-10--3-3--3-3--2-2-2-2--|

Verse 2 - 2x (on 2x hold out G chord)
“thought it was, twenty-four hours ago…” 
e|--0-0--0-0--0-0--0-0--0-0--0-0--0-0--0-0--------------------|
B|--3-3--3-3--3-3--3-3--3-3--3-3--3-3--3-3--3-3-3-3--3-3-3-3--|
G|--2-2--4-4--2-2--4-4--2-2--4-4--2-2--4-4--2-2-2-2--2-2-2-2--|
D|--x-x--x-x--x-x--x-x--x-x--x-x--x-x--x-x--0-0-0-0--0-0-0-0--|
A|--2-2--2-2--2-2--2-2--3-3--3-3--3-3--3-3--x-x-x-x--x-x-x-x--|
E|--0-0--0-0--0-0--0-0----------------------3-3-3-3--2-2-2-2--|

e|--3-3-3-3-----------|
B|--3-3-3-3--3-3-3-3--|
G|--0-0-0-0--2-2-2-2--|
D|--0-0-0-0--0-0-0-0--|
A|--x-x-x-x--x-x-x-x--|
E|--3-3-3-3--2-2-2-2--|

Verse 3
“there's twenty-four reasons…”
e|--3--3--3--3---0--0--0--0---0--0---0--0---3--3---------|
B|--3--3--3--3---3--3--3--3---3--3---3--3---3--3---3--3--|
G|--0--0--0--0---0--0--0--0---2--2---2--2---0--0---2--2--|
D|--0--0--0--0---x--x--x--x---0--0---0--0---0--0---0--0--|
A|--x--x--x--x---3--3--3--3---x--x---x--x---x--x---x--x--|
E|--3--3--3--3----------------3--3---2--2---3--3---2--2--|

Pre-Chorus
“see, I'm not copping out…” 
e|----------------------------------------------------------|
B|----------------------------------------------------------|
G|--12-12--11-11--12-12--11-11--12-12--11-11--12-12--11-11--|
D|---x--x---x--x---x--x---x--x---x--x--10-10---x--x--10-10--|
A|--10-10---9--9--10-10---9--9--10-10---9--9--10-10---9--9--|
E|---0--0---0--0---0--0---0--0---8--8---8--8---8--8---8--8--|

“I’m not copping out…”
e|----------------------------------------------------------|
B|----------------------------------------------------------|
G|--12-12--11-11--12-12--11-11--12-12--11-11--12-12--11-11--|
D|---x--x---x--x---x--x---x--x---x--x--10-10---x--x---x--x--|
A|--10-10---9--9--10-10---9--9--10-10---9--9--10-10---9--9--|
E|--10-10--10-10--10-10--10-10---8--8---8--8--10-10--10-10--|

Chorus
“oh, oh, I am the second man…” 
e|--3-3-3-3--0-0---0-0----0-0-0-0--0-0---0-0----|
B|--3-3-3-3--3-3---3-3----3-3-3-3--3-3---3-3----|
G|--0-0-0-0--4h0---4-0----0-0-0-0--4h0---4h0----|
D|--0-0-0-0--0-4p0-0-4p0--2-2-2-2--0-4p0-0-4p0--|
A|--x-x-x-x--x-x---x-x----2-2-2-2--2-2---2-2----|
E|--3-3-3-3--3-3---3-3----0-0-0-0--0-0---0-0----|

e|--0-0-0-0--0-0---0-0------------------------|
B|--3-3-3-3--3-3---3-3----3-3-3-3--3-3-3-3----|
G|--0-0-0-0--4h0---4-0----2-2-2-2--2-2-2-2----|
D|--x-x-x-x--0-4p0-0-4p0--0-0-0-0--0-0-0-0----|
A|--3-3-3-3--3-3---3-3----x-x-x-x--x-x-x-x----|
E|------------------------3-3-3-3--2-2-2-2----|

Verse 4
“twenty-four voices…” 
e|------------------------------------------------------------|
B|--0-0--0-0--0-0--0-0--0-0--0-0--0-0--0-0--3-3-3-3--3-3-3-3--|
G|--2-2--4-4--2-2--4-4--2-2--4-4--2-2--4-4--2-2-2-2--2-2-2-2--|
D|--0-0--0-0--0-0--0-0--x-x--x-x--x-x--x-x--0-0-0-0--0-0-0-0--|
A|--x-x--x-x--x-x--x-x--3-3--3-3--3-3--3-3--x-x-x-x--x-x-x-x--|
E|--3-3--3-3--3-3--3-3----------------------3-3-3-3--2-2-2-2--|

e|--3-3-3-3-----------|
B|--3-3-3-3--3-3-3-3--|
G|--0-0-0-0--2-2-2-2--|
D|--0-0-0-0--0-0-0-0--|
A|--x-x-x-x--x-x-x-x--|
E|--3-3-3-3--2-2-2-2--|

“one today, centered & true…”
e|--0-0-0-0-0-0-0-0--0-0-0-0-0-0-0-0--------------------|
B|--3-3-3-3-3-3-3-3--3-3-3-3-3-3-3-3--3-3-3-3--3-3-3-3--|
G|--0-0-0-0-0-0-0-0--0-0-0-0-0-0-0-0--2-2-2-2--2-2-2-2--|
D|--2-2-2-2-2-2-2-2--2-2-2-2-2-2-2-2--0-0-0-0--0-0-0-0--|
A|--2-2-2-2-2-2-2-2--3-3-3-3-3-3-3-3--x-x-x-x--x-x-x-x--|
E|--0-0-0-0-0-0-0-0-------------------3-3-3-3--2-2-2-2--|

e|--3-3-3-3-----------|
B|--3-3-3-3--3-3-3-3--|
G|--0-0-0-0--2-2-2-2--|
D|--2-2-2-2--0-0-0-0--|
A|--3-3-3-3--x-x-x-x--|
E|-----------3-3-3-3--|

Chorus - 2x

Verse 5
“I wanna see miracles…” 
e|--3--3--3--3---0--0--0--0---0--0---0--0-----------------------|
B|--3--3--3--3---3--3--3--3---3--3---3--3---0-0--0-0--0-0--0-0--|
G|--0--0--0--0---0--0--0--0---2--2---2--2---2-2--4-4--2-2--4-4--|
D|--0--0--0--0---x--x--x--x---0--0---0--0---0-0--0-0--0-0--0-0--|
A|--x--x--x--x---2--2--2--2---x--x---x--x---x-x--x-x--x-x--x-x--|
E|--3--3--3--3---0--0--0--0---3--3---2--2---3-3--3-3--3-3--3-3--|

e|--0-0-0-0-0-0-0-0--0-0-0-0-0-0-0-0--------------------|
B|--3-3-3-3-3-3-3-3--3-3-3-3-3-3-3-3--3-3-3-3--3-3-3-3--|
G|--0-0-0-0-0-0-0-0--0-0-0-0-0-0-0-0--2-2-2-2--2-2-2-2--|
D|--2-2-2-2-2-2-2-2--2-2-2-2-2-2-2-2--0-0-0-0--0-0-0-0--|
A|--2-2-2-2-2-2-2-2--3-3-3-3-3-3-3-3--x-x-x-x--x-x-x-x--|
E|--0-0-0-0-0-0-0-0-------------------3-3-3-3--2-2-2-2--|

e|--3-3-3-3-----------|
B|--3-3-3-3--3-3-3-3--|
G|--0-0-0-0--2-2-2-2--|
D|--2-2-2-2--0-0-0-0--|
A|--3-3-3-3--x-x-x-x--|
E|-----------3-3-3-3--|

Chorus - 3x (fade out)

*Chords Used
   Gsus2  G  Am9/C  G/C  G/D  Gadd11/D  Emadd11  Em  G*  Gsus2*  D/F#  
e|-------------------------------------------------------------------|
B|---0----0----0-----0----0-------0--------0------0--0-----0------3--|
G|---0----0----0-----0----0-------0--------0------0--2-----4------2--|
D|---7----9----7-----9----9------10--------7------9--0-----0------0--|
A|--10---10----x-----x----x-------x-------10-----10--x-----x------x--|
E|-------------8-----8---10------10--------0------0--3-----3------2--|

  E7sus4  E5  C6add9(no3)  A#5/C  Gsus2**  G5  Cadd9  CM9  CM13      
e|---0----0-------0----------0-------------3-----0-------------|
B|---3----3-------3----------3------3------3-----3-----0----0--|
G|---2----4-------2----------4------2------0-----0-----4----2--|
D|---x----x-------x----------x------0------0-----x-----x----x--|
A|---2----2-------3----------3------x------x-----3-----3----3--|
E|---0----0-------------------------3------3-------------------|

    Em  Emadd9  C5  C(#11)  Dsus4  D  Gadd9  Gadd9*  Em7
e|----------------------------------------------------0--|
B|--------------------------------------0------0------3--|
G|--12----11----12----11-----12---11----2------4------0--|
D|---x-----x-----x----10------x----x----0------0------2--|
A|--10-----9----10-----9-----10----9----x------x------2--|
E|---0-----0-----8-----8-----10---10----3------3------0--|
comments
print report bad tab
1 comment total.
+1 reply
estevan711 wrote on May 25 2009, 03:40 pm

Awesome, great job! Exactly like the original.

I want to post or [tab]
guest
You may want to rate the tab now too:
select rating
Please do not post tabs as comments. Select "correction" instead!