Oops, an error
Loading. Please wait.

412 Bass Tab

2,600 views 1 this week
no commentswrite comment
1 2 3 4 5
excellent!
x 4
add to favorites
launch autoscroll
font size
0
reset
guitar tuner
Tab Pro tools
  • play this tab
  • loop segment
  • change instrument
  • show fretboard
  • metronome
×
Best way to learn
"412"
Autoscroll
slow
fast
+/-
esc
set tempo
stop
Contributor
Artist:Switchfoot
Song:4:12
Album:'Oh Gravity.
Tabbed by: David Hernandez

umm..i really liked playing this song!!
it took me a while to tab it out
so yea hope ya'll like it!!
here you go!

Verse
G|----------------------|-------------------------|
D|3-3-------------------|--3-3--------------------|X2
A|----3-3---------------|------3-3----------------|
E|---------3-3-3--3-3-3-|-----------3-3-3--3-3-3--|
(Listen to the song for timing here)
G|--------------------------------------------------------------------|
D|3/15----14------12------12----12-14-15----14------12------12--------|
A|----15----15--14--14--14--14-14-------15----15--14--14--14--14-12---|
E|------15----15------15------------------15----15------15---------15-|

G|-----------------------------------------------|
D|3-3---------------------3-3--------------------|
A|----3-3---------------------3-3----------------|
E|---------3-3-3--3-3-3------------3-3-3--3-3-3--|

Chorus
G|--------------------------------|  |---------------------------------|
D|0-0-5-----------0-4-5-----------|X2|-2---0---2h0-----0-5-0-----------|
A|--------0-2-0-5---------0-2-0-5-|  |-------------3-3---------0~~~~~~~|
E|------3---------------3---------|  |-----------------------3---------|

Bridge
G|----------------------|
D|3-3-------------------|
A|----3-3---------------|
E|---------3-3-3--3-3-3-|

Verse 2 umm.. yea this is the Clapping part this is optional!!though
1-2-3-4-5-6-7&1-2-3-4-5-6-7-8-----------------------|
1-2-3-4-5-6-7&1-2-3-4-5-6-7-8-----------------------|
1-2-3-4-5-6-7&1-2-3-4-5-6-7-8-----------------------|
1-2-3-4-5-6-7&1-2-3-4-5-----------------------------|
G|----------------------|---------------------------|
D|3-3-------------------|--3-3----------------------|X2
A|----3-3---------------|------3-3------------------|
E|---------3-3-3--3-3-3-|-----------3-3-3--3-3-3----|
(If your clapping, stop immediately on that 5th count
 and come in here with a big slide up to 15)
G|--------------------------------------------------------------------|
D|3/15----14------12------12----12-14-15----14------12------12--------|
A|----15----15--14--14--14--14-14-------15----15--14--14--14--14-12---|
E|------15----15------15------------------15----15------15---------15-|

Chorus 2 (same as first chorus)
G|--------------------------------|  |---------------------------------|
D|0-0-5-----------0-4-5-----------|X2|-2---0---2h0-----0-5-0-----------|
A|--------0-2-0-5---------0-2-0-5-|  |-------------3-3---------0~~~~~~~|
E|------3---------------3---------|  |-----------------------3---------|

Interlude
G|--------------------------------3/16~~-------------|
D|3-3---------------------3-3-----------15h17-12---5-|
A|----3-3---------------------3-3--------------------|
E|---------3-3-3--3-3-3------------------------------|

G|-----------------------------------------------|
D|3-3---------------------3-3--------------------|
A|----3-3---------------------3-3----------------|
E|---------3-3-3--3-3-3------------3-3-3--3-3-3--|

Chorus 3 (theres a key change)
G|------------------------------------2-------------1-2-----------|
D|0-0-5-----------0-4-5-----------2-2---------0-1-2-----------0-2-|
A|--------0-2-0-5---------0-2-0-5-------0-2-5-----------0-2-5-----|
E|------3---------------3-----------------------------------------|

G|-------------------2----------------------2---------------|
D|-4---2--4p2--0-0-2---2---------4----0---2---2-------------|
A|-----------------------0-2--------------------0-2~~~~~~~~~|
E|----------------------------------------------------------|

Outro
"sticks and Bones.."
G|--------------------------------3/16~~-------------|
D|3-3---------------------3-3-----------15h17-12---5-|
A|----3-3---------------------3-3--------------------|
E|---------3-3-3--3-3-3------------------------------|

G|----------------------|-------------------------|
D|3-3-------------------|3-3----------------------|
A|----3-3---------------|----3-3------------------|
E|---------3-3-3--3-3-3-|---------3-3-3--3-3-3----|

G|-------------------------|(Listen for the timing here)
D|3-3--------------0-2-0h2-|
A|----3-3----0-2-3---------|
E|---------3---------------|

G|----------------------|
D|3-3-------------------|X2
A|----3-3---------------|
E|---------3-3-3--3-3-3-|

G|---------5p4-0------------------|(Listen for the timing here)
D|3-3------------0--3p0h2---------|
A|----3-3-----------------3p0h2---|
E|--------------------------------|


G|---------3/16~~-------------------------------------------|
D|-3-3-----------15h17-12---5/15----14------12------12------|
A|-----3-3----------------------15----15--14--14--14--14-12-|
E|--------------------------------15----15------15----------|

Finish with this riff
G|----------------------|
D|3-3-------------------|
A|----3-3---------------|
E|---------3-3-3--3-3-3-|

Well thats the whole song.It takes practice because of the timing but in my opinion this 
one of the best songs off of Oh! Gravity when it comes to the bass part. umm yea this 
like my 3rd tab
so.. yea im up for corrections
so yea if you want email me the corrections my email is dude39723@aol.com
umm..peace out
Thanks and god bless!!
comments
print report bad tab
I want to post or [tab]
guest
You may want to rate the tab now too:
select rating
Please do not post tabs as comments. Select "correction" instead!