Oops, an error
Loading. Please wait.

412 Tab

version 2
version 2

Whole song

1,037 views 1 this week
no commentswrite comment
1 2 3 4 5
2 more votes to show rating
add to favorites
launch autoscroll
font size
0
reset
how to read this tab
guitar tuner
Autoscroll
slow
fast
+/-
esc
set tempo
stop
Help us to improve Ultimate-Guitar.com Take our survey!
×
Author
This tab i believe is correct. i got it.


Intro/Verse
E-----------------------------------------------|
B-----------------------------------------------|
G-10-x-10---------------------------------------| play it a bunch
D-10-x-10--10-x-10--555-x-555-x-555-x-555-------| of times.
A-8--x-8---10-x-10--555-x-555-x-555-x-555-------|
E----------8--x-8---333-x-333-x-333-x-333-------|


Chorus- x2
E----------------------------------------|
B----------------------------------------|
G-7-x-77-x----------7-x-77-x-------------|
D-7-x-77-x-5-x-55-x-7-x-77-x-5-x-55-x----|
A-5-x-55-x-5-x-55-x-5-x-55-x-5-x-55-x----|
E----------3-x-33-x----------3-x-33-x----|

Ending Chorus
E----------------------------------------------|
B----------------------------------------------|
G-12-12-12-x-11-11-11-x-9-9-9-x-7-7-7-x-6~-----|
D-12-12-12-x-11-11-11-x-9-9-9-x-7-7-7-x-7~-----|
A-10-10-10-x-9--9--9--x-7-7-7-x-5-5-5-x-7~-----|
E-------------------------------------x-5~-----|


Verse 2- Same (not really any talking)

Chorus 2
E-----------------------------------------------------------------------|
B-----------------------------------------------------------------------|
G-7-x-77-x--------7-x-77------------9-x-99-x----------9-x-99------------|
D-7-x-77-x-5-x-55-7-x-77-x-5-x-55-x-9-x-99-x-7-x-77-x-9-x-99-x-7-x-77---|
A-5-x-55-x-5-x-55-5-x-55-x-5-x-55-x-7-x-77-x-7-x-77-x-7-x-77-x-7-x-77---|
E----------3-x-33--------x-3-x-33-x----------5-x-55-x--------x-5-x-55---|


Ending Chorus 2
E---------------------------------------|
B-10~-9~--7~--5~--x---------------------|
G-9~--8~--6~--4~--x--7~-6~-4~--2~-------|
D-7~--6~--4~--2~--x--7~-6~-4~--2~--5~---|
A-----------------x--5~-4~-2~--0~--5~---|
E-----------------x----------------3~---|

Bridge
E---------------------------------------------------|
B--3--5--6--5----13~------------13~-----------------|
G--2--4--5--4----10~--12~--7~---10~--12~--7~--------|
D---------------------10~--5~--------10~--5~--------|
A---------------------------------------------------|
E---------------------------------------------------|

-Then goes back to the Verse Beat.

-Then this in the background.

E--------------------|
B-5-x-5-x-5-x-5------|
G-5-x-5-x-5-x-5------|
D-5-x-5-x-5-x-5------|
A--------------------|
E--------------------|
Suggest correction
Give kudos to tab author, rate the tab!
1 2 3 4 5
comments
print report bad tab
guest
You may want to rate the tab now too:
select rating
Wanna post a correction for this tab? Suggest correction