Oops, an error
Loading. Please wait.

Adding To The Noise Bass Tab

version 1
version 1

Whole song

Interactive

2,331 views 1 this week
no commentswrite comment
1 2 3 4 5
please rate
add to favorites
launch autoscroll
font size
0
reset
guitar tuner
Autoscroll
slow
fast
+/-
esc
set tempo
stop
Help us to improve Ultimate-Guitar.com Take our survey!
×
Band- Switchfoot
Song- Adding To The Noise

Tuning: Standard

Intro          (1st & 3rd)(2nd)  (4th)
G|---------------|------|-------|------|
D|---------------|------|-------|------|
A|-5--5----------|------|-5-----|-5----| 4x
E|-----5--5777---|-7575-|---5-6-|--7-5-|

Verse ("out of those convience stores...")
G|------------------|
D|------------------|
A|-555555-----------| 3x
E|-------7755555577-|

Pre-Chorus
G|---------|
D|---------|
A|-5~------|
E|---5~-7~-|

Chorus         (1st & 3rd)(2nd)  (4th)
G|---------------|------|-------|------|
D|---------------|------|-------|------|
A|-5--5----------|------|-5-----|-5----| 4x
E|-----5--5777---|-7575-|---5-6-|--7-5-|

Verse
G|------------------|
D|------------------|
A|-555555-----------| 6x
E|-------7755555577-|

Pre-Chorus
G|---------|
D|---------|
A|-5~------|
E|---5~-7~-|

Chorus         (1st & 3rd)(2nd)  (4th)
G|---------------|------|-------|------|
D|---------------|------|-------|------|
A|-5--5----------|------|-5-----|-5----| 4x
E|-----5--5777---|-7575-|---5-6-|--7-5-|

Bridge
G|----------------|
D|----------------|
A|----------------|
E|-6-8--10--8-6-8-|

Post Bridge
G|----------|
D|----------|
A|----------|
E|6-8--10-5-|

Outro
G|-------------|
D|-------------|
A|-555---------| repeat until end
E|----57777575-|
Suggest correction
Give kudos to tab author, rate the tab!
1 2 3 4 5
comments
print report bad tab
guest
You may want to rate the tab now too:
select rating
Please do not post tabs as comments. Select "correction" instead!