Oops, an error
Loading. Please wait.

Adding To The Noise Tab

version 3
version 3

Whole song

Interactive

9,124 views 3 this week
no commentswrite comment
1 2 3 4 5
excellent!
x 8
add to favorites
launch autoscroll
font size
0
reset
how to read this tab
guitar tuner
Tab Pro tools
  • play this tab
  • loop segment
  • change instrument
  • show fretboard
  • metronome
×
Best way to learn
"Adding To The Noise"
Autoscroll
slow
fast
+/-
esc
set tempo
stop
Contributor
Difficulty
novice
----------------------------------------------------------------------------
                             Adding To The Noise - Switchfoot
----------------------------------------------------------------------------
Tabbed by: Yellowcard117
Email: Alechemist88@aol.com

Tuning: Standard (EADGBe)

Intro (0:01) (quiet)
e|----------------------------------------------|
B|----------------------------------------------|
G|---7--7------4444444-4/7-7------444-xxxx------|
D|-7-7--7-7-77-4444444-4/7-7-7-77-444-xxxx------| (x1)
A|-7-5--5-7-77-2222222-2/5-5-7-77-222-xxxx------|
E|-5------5-55---------------5-55-----xxxx------|

(0:08) (distortion)
e|----------------------------------------------------|
B|----------------------------------------------------|
G|---7--7------44444242-4/7-7------444-xxxx-----------|
D|-7-7--7-7-77-44444242-4/7-7-7-77-444-xxxx-----------|
A|-7-5--5-7-77-22222020-2/5-5-7-77-222-xxxx-----------|
E|-5------5-55----------------5-55-----xxxx-----------|

e|---------------------------------------------------|
B|---------------------------------------------------|
G|--7--7------44444242-4/7-7------33335555-----------|
D|--7--7-7-77-44444242-4/7-7-7-77-33335555-----------|
A|--5--5-7-77-22222020-2/5-5-7-77-11113333-----------|
E|-------5-55----------------5-55--------------------|

Verse (0:22)
e|-----------------------|
B|-----------------------|
G|-777777----------------|
D|-777777-77-555555-77---| (x3)
A|-555555-77-555555-77---|
E|--------55-333333-55---|

(0:33)
e|---------------------|
B|---------------------|
G|-777777--------------|
D|-777777-77-5---------|
A|-555555-77-5-(rest)--|
E|--------55-3---------|

e|-----------------------|
B|-----------------------|
G|-777777----------------|
D|-777777-77-555555-77---| (x3)
A|-555555-77-555555-77---|
E|--------55-333333-55---|

Pre Chorus (0:46)
e|----------------------------------------|
B|----------------------------------------|
G|----------------------------3~2323232---|
D|-22222222-44444444-55555555-3~2323232---| (x1)
A|-22222222-44444444-55555555-1~0101010---|
E|-00000000-22222222-33333333-------------|

Chorus (0:53)
e|---------------------------------------------------|
B|---------------------------------------------------|
G|--7--7------44444242-4/7-7------4444xxxx-----------|
D|--7--7-7-77-44444242-4/7-7-7-77-4444xxxx-----------|
A|--5--5-7-77-22222020-2/5-5-7-77-2222xxxx-----------|
E|-------5-55----------------5-55--------------------|

e|---------------------------------------------------|
B|---------------------------------------------------|
G|--7--7------44444242-4/7-7------3333222233332222---|
D|--7--7-7-77-44444242-4/7-7-7-77-3333222233332222---|
A|--5--5-7-77-22222020-2/5-5-7-77-1111000011110000---|
E|-------5-55----------------5-55--------------------|

Verse (1:09)
e|-----------------------|
B|-----------------------|
G|-777777----------------|
D|-777777-77-555555-77---| (x3)
A|-555555-77-555555-77---|
E|--------55-333333-55---|

(1:19)
e|-------------------|
B|-------------------|
G|-7-77-7-7----------|
D|-7-77-7-7-5-55-5---|
A|-5-55-5-5-5-55-5---|
E|----------3-33-3---|

e|-----------------------|
B|-----------------------|
G|-777777----------------|
D|-777777-77-555555-77---| (x3)
A|-555555-77-555555-77---|
E|--------55-333333-55---|

Pre Chorus (1:33)
e|----------------------------------------|
B|----------------------------------------|
G|----------------------------3~2323232---|
D|-22222222-44444444-55555555-3~2323232---| (x1)
A|-22222222-44444444-55555555-1~0101010---|
E|-00000000-22222222-33333333-------------|

Chorus (1:39)
e|-----------------------------------------|
B|-----------------------------------------|
G|--7--7------44444242-4/7-7------4--------|
D|--7--7-7-77-44444242-4/7-7-7-77-4-(rest)-|
A|--5--5-7-77-22222020-2/5-5-7-77-2--------|
E|-------5-55----------------5-55----------|

e|-------------------------------------------|
B|-------------------------------------------|
G|--7--7------44444242-4/7-7------33332222---|
D|--7--7-7-77-44444242-4/7-7-7-77-33332222---|
A|--5--5-7-77-22222020-2/5-5-7-77-11110000---|
E|-------5-55----------------5-55------------|

e|------------------------------------------|
B|------------------------------------------|
G|--7--7------44444242-4/7-7------4444xxxx--|
D|--7--7-7-77-44444242-4/7-7-7-77-4444xxxx--|
A|--5--5-7-77-22222020-2/5-5-7-77-2222xxxx--|
E|-------5-55----------------5-55-----------|

e|-------------------------------------------|
B|-------------------------------------------|
G|--7--7------44444242-4/7-7------33332222---|
D|--7--7-7-77-44444242-4/7-7-7-77-33332222---|
A|--5--5-7-77-22222020-2/5-5-7-77-11110000---|
E|-------5-55----------------5-55------------|

Bridge (2:07) (quiet)
e|------------------------------------------------------------------------|
B|------------------------------------------------------------------------|
G|33333333-55555555-77777777-55555555-33333333-55555555-77777777----------|
D|33333333-55555555-77777777-55555555-33333333-55555555-77777777-77777777-|
A|11111111-33333333-55555555-33333333-11111111-33333333-55555555-77777777-|
E|---------------------------------------------------------------55555555-|

Chorus (2:21) (quiet)
e|------------------------------------------|
B|------------------------------------------|
G|------------------------------------------|
D|--7--7------44444242-4/7-7------4444xxxx--|
A|--5--5-7-77-22222020-2/5-5-7-77-2222xxxx--|
E|-------5-55----------------5-55-----------|

e|---------------------------------|
B|---------------------------------|
G|---------------------------------|
D|--7--7------44444242-4/7-(rest)--|
A|--5--5-7-77-22222020-2/5---------|
E|-------5-55----------------------|

Outro (2:33) (distortion)
e|---------------------------------------------------|
B|---------------------------------------------------|
G|-33335555-7--7------44444242-4/7-7------44444242---|
D|-33335555-7--7-7-77-44444242-4/7-7-7-77-44444242---|
A|-11113333-5--5-7-77-22222020-2/5-5-7-77-22222020---|
E|---------------5-55----------------5-55------------|

e|----------------------------------------|
B|----------------------------------------|
G|-7--7------44444242-------------------7-|
D|-7--7-7-77-44444242-22222222-33333333-7-|
A|-5--5-7-77-22222020-22222222-33333333-5-|
E|------5-55----------00000000-11111111---|


| /  slide up
| \  slide down
| h  hammer-on
| p  pull-off
| ~  vibrato
| +  harmonic
| x  Mute note
============================================================================
comments
print report bad tab
I want to post or [tab]
guest
You may want to rate the tab now too:
select rating
Please do not post tabs as comments. Select "correction" instead!