Oops, an error
Loading. Please wait.

Adding To The Noise Tab

version 4
version 4

Whole song

Interactive

457 views 1 this week
no commentswrite comment
1 2 3 4 5
3 more votes to show rating
add to favorites
launch autoscroll
font size
0
reset
how to read this tab
guitar tuner
Autoscroll
slow
fast
+/-
esc
set tempo
stop
Help us to improve Ultimate-Guitar.com Take our survey!
×
Author
Difficulty
intermediate
  Hey all this is adding to the noise by switchfoot..i kno this tab is 100% correct :) enjoy!
 intro and chorus                          one, two, three..
 |--------------------------------------------------------|
 |--------------------------------------------------------|
 |---7---7----------------------7----7---------------x-x-x|
 |-7-7---7-7--7-7/-9-9-9-9-9-9--7----7-7---7--7/-9-9-x-x-x|
 |-7-5---5-7--7-7/-9-9-9-9-9-9--5----5-7---7--7/-9-9-x-x-x|
 |-5-5---5-5--5-5/-7-7-7-7-7-7--5----5-5---5--5/-7-7-x-x-x|


 |-------------------------------------------------------------------------|
 |-----------------------------------------------------x-------------------|
 |-7---7-----------------------7--7--------------------x-------------------|
 |-7---7-7--7-7/9-9-9-9\7/9\7--7--7-7--7--7/9--9--(9)/---------------------|
 |-5---5-7--7-7/9-9-9-9\7/9\7--5--5-7--7--7/9--9--(9)/---------------------|
 |-5---5-5--5-5/7-7-7-7\5/7\5--5--5-5--5--5/7--7--(7)/----17\--------------|


                 verse 1
 |-------------|-------------------------------------------|----------------|
 |-------------|-------------------------------------------|----------------|
 |------10-10\-|-------------------------------------------|----------------|
 |-8--8/10-10\-|-5-5-5-5-5---------------------------------|7---------------|
 |-8--8/8--8\--|-7-7-7-7-7-7-7-5-5-5-5-5-5-5-7-7-----------|5-x5-7----5-----|
 |-6--6/8--8\--|-----------5-5-3-3-3-3-3-3-3-5-5--X3then-->|-----5-x2-3-x1--|


   pre-chorus
 |-----------------------------------------------------------------------|
 |-----------------------------------------------------------------------|
 |-----------------------------------------------------------------------|
 |--------------------------------------------------8--7-8-7-8-7-8-7-----|
 |-9-9-9-9-9-9-9-9--9-9-9-9-9-9-9-9--2-2-2-2-2-2-2--8--7-8-7-8-7-8-7-----|
 |-7-7-7-7-7-7-7-7--5-5-5-5-5-5-5-5--0-0-0-0-0-0-0--6--5-6-5-6-5-6-5-----|


  this is part of the second verse..its the same up to here and after is the same.

  ..but ill bet that that tv set..
 |-----------------|
 |-----------------|
 |-----------------|
 |-----------------|
 |-9-9-9-9-7-7-7-7-|
 |-5-5-5-5-3-3-3-3-|


  bridge
 |-1-1-1-1-1-1---------------------------1-1-1-1-1-1------------------|
 |-1-1-1-1-1-1--6-6-6-6-6-6--6-6-6-6-6-6-1-1-1-1-1-1--1-1-1-----------|
 |-3-3-3-3-3-3--5-5-5-5-5-5--5-5-5-5-5-5-2-2-2-2-2-2--1-1-1-----------|
 |-3-3-3-3-3-3--5-5-5-5-5-5--7-7-7-7-7-7-3-3-3-3-3-3--3-3-3-3---------|
 |-1-1-1-1-1-1--3-3-3-3-3-3--5-5-5-5-5-5-3-3-3-3-3-3--3-3-3-3---------|
 |---------------------------------------1-1-1-1-1-1--1-1-1-1---------|

 |---------------------------5-5-5-5-5-5-|
 |-6-6-6-6-6-6--6-6-6-6-6-6--5-5-5-5-5-5-|
 |-5-5-5-5-5-5--5-5-5-5-5-5--6-6-6-6-6-6-|
 |-5-5-5-5-5-5--7-7-7-7-7-7--5-5-5-5-5-5-|
 |-3-3-3-3-3-3--5-5-5-5-5-5--7-7-7-7-7-7-|
 |---------------------------5-5-5-5-5-5-|


 |-------------------------------------------------------------------------|
 |-------------------------------------------------------------------------|
 |-------------------------------------------------------------------------|
 |-------------------------------------------------------------------------|
 |-5---5------------------------5---5-----------------------5---5----------|
 |-------5---5--5-7--7--7-5-7-5------5---5--5-7-7--x--x-17\-------5--5-----|

-5--7--7---7-5-7-5----------------|
--------------------5-------------|
---------------------------10--10\| and then it goes back to the regular
----------------------8-8-/10--10\| the regular chorus.
----------------------8-8-/8---8\-|
----------------------6-6-/8---8\-|


|-----|
|-----|
|-----|
|-12\-|..this is the last chord they hit and slide it down and there ya go.
|-12\-|  feel free to make comments and plz rate it. thx.
|-10\-|                                                     -xAlwaysx-
Suggest correction
Give kudos to tab author, rate the tab!
1 2 3 4 5
comments
print report bad tab
guest
You may want to rate the tab now too:
select rating
Wanna post a correction for this tab? Suggest correction