Oops, an error
Loading. Please wait.

Afterlife Bass Tab

version 1
version 1

Whole song

Interactive

4,211 views 15 this week
2 commentsread comments
1 2 3 4 5
excellent!
x 2
add to favorites
launch autoscroll
font size
0
reset
guitar tuner
Tab Pro tools
  • play this tab
  • loop segment
  • change instrument
  • show fretboard
  • metronome
Autoscroll
slow
fast
+/-
esc
set tempo
stop
Contributor
Difficulty
-----------------------------------------------------------------------------
                               AFTERLIFE                 SWITCHFOOT
-----------------------------------------------------------------------------

Tabbed by:hurricaneherman
Tuning:Drop D (D-A-D-G)

~INTRO~

No bass.

~VERSE~

I've tasted fire I'm ready to come alive
I can't just shut it up and fake that I'm alright
I'm ready now I'm not waiting for the afterlife


G|----------------------------------------------------------------|
D|----------------------------------------------------------------|
A|0-0-0-------0-0-0---------------0-0-0-------0-0-0---------------|
D|----------------------------------------------------------------|

G|----------------------------------------------------------------|
D|----------------------------------------------------------------|
A|0-0-0-------0-0-0---------------0-0-0-------0-0-0---------------|X2
D|----------------------------------------------------------------|
       I'll let it burn the way the sunlight burns my skin
          The way I feel inside the way the day begins

G|----------------------------------------------------------------|
D|----------------------------------------------------------------|
A|----------------------------------------------------------------|X2
D|3-3-3-------3-3-3---------------5-5-5-------5-5-5---------------|
        I'm ready now I'm not waiting for the other side
                I'm ready now I'm ready now cause

~CHORUS~

G|----------------------------------------------------------------|
D|----------------------------------------------------------------|
A|----------------------------------------------------------------|
D|7---7---7---7---7---7---7---7---10--10--10--10--10--10--10--10--|
            Everyday the world is made a chance to

G|----------------------------------------------------------------|
D|----------------------------------------------------------------|
A|----------------------------------------------------------------|
D|3---3---3---3---3---3---3---3---0---0---0---0---0---0---0---0---|
           Change but I feel the same and I wonder

G|----------------------------------------------------------------|
D|----------------------------------------------------------------|
A|----------------------------------------------------------------|
D|7---7---7---7---7---7---7---7---10--10--10--10--10--10--10--10--|
          Why would I wait till I die to come alive

G|----------------------------------------------------------------|
D|----------------------------------------------------------------|
A|----------------------------------------------------------------|
D|3---3---3---3---3---3---3---3---5---5---5---5---5---5---5---5---|
       I'm ready now I'm not waiting for the afterlife

G|--------------------------------|
D|--------------------------------|
A|--------------------------------|
D|7---\---------------------------|

~VERSE 2~


G|----------------------------------------------------------------|
D|----------------------------------------------------------------|
A|0-0-0-------0-0-0---------------0-0-0-------0-0-0---------------|
D|----------------------------------------------------------------|
   I still believe we could live forever You and we begin forever

G|----------------------------------------------------------------|
D|----------------------------------------------------------------|
A|----------------------------------------------------------------|
D|3-3-3-------3-3-3---------------0-0-0-------0-0-0---------------|
                        Now forever now

G|----------------------------------------------------------------|
D|----------------------------------------------------------------|
A|0-0-0-------0-0-0---------------0-0-0-------0-0-0------/5-------|
D|----------------------------------------------------------------|
   I still believe in us together you and I we're here together

G|----------------------------------------------------------------|
D|----------------------------------------------------------------|
A|----------------------------------------------------------------|X2
D|3-3-3-------3-3-3---------------0-0-0-------0-0-0---------------|
                       Now Forever now
                   Forever now or never now

~CHORUS 2~

G|----------------------------------------------------------------|
D|----------------------------------------------------------------|
A|----------------------------------------------------------------|
D|7---7---7---7---7---7---7---7---10--10--10--10--10--10--10--10--|
            Everyday the world is made a chance to

G|----------------------------------------------------------------|
D|----------------------------------------------------------------|
A|-----------------------------------------------/5---5---5---5---|
D|3---3---3---3---3---3---3---3---0---0---0---0-------------------|
           Change but I feel the same and I wonder

G|----------------------------------------------------------------|
D|----------------------------------------------------------------|
A|----------------------------------------------------------------|
D|7---7---7---7---7---7---7---7---10--10--10--10--10--10--10--10--|
          Why would I wait till I die to come alive

G|----------------------------------------------------------------|
D|----------------------------------------------------------------|
A|----------------------------------------------------------------|
D|3---3---3---3---3---3---3---3---5---5---5---5---5---5---5---5---|
       I'm ready now I'm not waiting for the afterlife

~INTERLUDE~

G|----------------------------------------------------------------|
D|----------------------------------------------------------------|
A|3---3---3---3---3---3---3---3-----------------------------------|
D|--------------------------------1---1---1---1---1---1---1---1---|

G|----------------------------------------------------------------|
D|----------------------------------------------------------------|
A|----------------------------------------------------------------|
D|6---6---6---6---6---6---6---6---3---3---3---3---3---3---5---5---|

G|----------------------------------------------------------------|
D|----------------------------------------------------------------|
A|3---3---3---3---3---3---3---3-----------------------------------|
D|--------------------------------1---1---1---1---1---1---1---1---|

G|----------------------------------------------------------------|
D|----------------------------------------------------------------|
A|----------------------------------------------------------------|
D|3---3---3---3---3---3---3---3---5---5---5---5---5---5---5---5---|

~BRIDGE~

Everyday a choice is made
Everyday I choose my fate

G|------------------------------------|
D|------------------------------------|
A|------------------------------------|
D|----5---5---5---5--/12--12--12--12--|
           And I wonder

~CHORUS 3~

G|----------------------------------------------------------------|
D|----------------------------------------------------------------|__
A|----------------------------------------------------------------|  |
D|7---7---7---7---7---7---7---7---10--10--10--10--10--10--10--10--|  |
            Why would I wait till I die to come alive                |
                        Everyday everyday                            |-X2
                                                                     |
G|----------------------------------------------------------------|  |
D|----------------------------------------------------------------|__|
A|----------------------------------------------------------------|
D|3---3---3---3---3---3---3---3---0---0---0---0---0---0---0---0---|
                    To come alive everyday
              I still feel the same and I wonder

G|----------------------------------------------------------------|
D|----------------------------------------------------------------|
A|----------------------------------------------------------------|
D|7---7---7---7---7---7---7---7---10--10--10--10--10--10--10--10--|
            Why would I wait till I die to come alive  

G|----------------------------------------------------------------|
D|----------------------------------------------------------------|
A|----------------------------------------------------------------|X3
D|3---3---3---3---3---3---3---3---5---5---5---5---5---5---5---5---|
        I'm ready now I'm not waiting for the afterlife
      I'm ready now I'm ready now I'm ready now I'm ready
        I'm ready now I'm not waiting for the afterlife

~OUTRO~

G|--------------------------------|
D|--------------------------------|
A|0-------------------------------|
D|--------------------------------|

=============================================================================
/ = slide up
\ = slide down

Thanks for using my tab, and if you're not pleased with it please write a comment so I know.

Peace, Love, I'm out
comments
We did not receive enough feedback on this tab! Please rate:
print report bad tab
1 2 3 4 5
2 comments total.
0 reply
morebrothanpro wrote on November 9 2011, 08:46 pm

Doesnt need to be in drop d. just tune standard and bring all the notes up a step

+1 reply
hurricaneherman wrote on November 9 2011, 09:06 pm

No, you don't have to but it's easier (so ever slightly)this way. But thanks for pointing that out morebrothanpro.:)

I want to post or [tab]
guest
You may want to rate the tab now too:
select rating
Please do not post tabs as comments. Select "correction" instead!