Oops, an error
Loading. Please wait.

Afterlife Tab

version 4
version 4

Whole song

Interactive

2,679 views 1 this week
no commentswrite comment
1 2 3 4 5
1 last vote to show rating
add to favorites
launch autoscroll
font size
0
reset
how to read this tab
guitar tuner
Autoscroll
slow
fast
+/-
esc
set tempo
stop
Help us to improve Ultimate-Guitar.com Take our survey!
×
Author
Difficulty
Tuning
intermediate
D A D G B E
Key:
h-hammer on
p-pull off
b-bend string
r- let ring
/-slide

Intro/Verse 1
e|------|
b|------|
g|------|
d|--7r--|
a|--7r--|
D|--7r--|

e|-------------------------------------------------------------------------|
b|-------------------------------------------------------------------------|
g|-------------------------------------------------------------------------|
d|--777--777----777--777----777--777----777--777----777--777----777--777---|
a|--777--777----777--777----777--777----777--777----777--777----777--777---|
D|--777--777----777--777----777--777----777--777----777--777----777--777---|

e|----------------------|
b|----------------------|
g|----------------------|
d|--333--333----555--555|
a|--333--333----555--555|
D|--333--333----555--555|


Verse 1
e|----------------------------------------------------------------------|
b|----------------------------------------------------------------------|
g|------------8b------------5b-------------------------8b---------------|
d|--777--777------777--777------777--777-----777--777------777--777-----|
a|--777--777------777--777------777--777-----777--777------777--777-----|
D|--777--777------777--777------777--777-----777--777------777--777-----|

e|--------------------------------------------------------------|
b|--------------------------------------------------------------|
g|------------5b------------------------------------------------|
d|--777--777------333--333----555--555----333--333----555--555--|
a|--777--777------333--333----555--555----333--333----555--555--|
D|--777--777------333--333----555--555----333--333----555--555--|


Chorus(listen to song for strum pattern)
e|----------------------------|
b|----------------------------|
g|----------------------------|
d|--7--10--3--0--7--10--3--5--|
a|--7--10--3--0--7--10--3--5--|
D|--7--10--3--0--7--10--3--5--|


Verse 2
e|--------------------------------------------------------------------------|
b|--------------------------------------------------------------------------|
g|------------8b-----------5b------------------------------8b----------5b---|
d|--777--777-----777--777-----777--777----777--777----333-----3---000-----0-|
a|--777--777-----777--777-----777--777----777--777----333-----3---000-----0-|
D|--777--777-----777--777-----777--777----777--777----333-----3---000-----0-|

REPEAT 2x
(Second time: Do NOT play the last 5b and play the open chord twice instead of once. 
You'll get it if you listen to the song.)


PLAY CHORUS


Guitar solo
e|---------------------------------------------------------------|
b|-----------11------------------------11------------------------|
g|--------------12------------------------12--10h12p10/8-----12b-|
d|--10-12-13-------10p8h10p8--10-12-13-------------------10------|
a|---------------------------------------------------------------|
D|---------------------------------------------------------------|


e|------------------11-10---------------------------------------------|
b|-----------11-----------11-----11h13p11---------------11------------|
g|--------------12-----------12-----------12---------------12------12b|
d|--10-12-13----------------------------------10-12-13--------9h11----|
a|--------------------------------------------------------------------|
D|--------------------------------------------------------------------|


PLAY CHORUS 1x PALM MUTED

PLAY CHORUS TO END

At end:

e-------------------------------------------------|
b-------------------------------------------------|
g-----------8b----------12b----------16b----------|
d--777--777----777--777-----777--777-----777--777-|
a--777--777----777--777-----777--777-----777--777-|
D--777--777----777--777-----777--777-----777--777-|

 This is my first tab. I would really appreciate it if you gave me some feedback. If you 
have any questions or comments feel free to send me a message on UG. I'll try to get to 
you as soon as possible. Enjoy and God bless!
Suggest correction
Give kudos to tab author, rate the tab!
1 2 3 4 5
comments
print report bad tab
guest
You may want to rate the tab now too:
select rating
Wanna post a correction for this tab? Suggest correction