Oops, an error
Loading. Please wait.

Always Bass Tab

version 1
version 1

Acoustic

Whole song

515 views 1 this week
no commentswrite comment
1 2 3 4 5
1 last vote to show rating
add to favorites
launch autoscroll
font size
0
reset
guitar tuner
Autoscroll
slow
fast
+/-
esc
set tempo
stop
Help us to improve Ultimate-Guitar.com Take our survey!
×
Author
Difficulty
-----------------------------------------------------------------------------
                   ALWAYS ALTERNATIVE ACOUSTIC VERSION         SWITCHFOOT
-----------------------------------------------------------------------------

Tabbed by:hurricaneherman
Tuning:Standard

Here is the bass tab for Switchfoot's song "Always", the alternative acoustic
version from their album Hello Hurricane.

~VERSE 1~

NO BASS

This is the start this is your heart this is the day you where born
This is the sun these are your lungs this is the day you where born

~CHORUS 1~

NO BASS

And I am always always always yours and I am always always always yours

~VERSE 2~

G|----------------------------------------------------------------|
D|----------------------------------------------------------------|
A|3------------\0-----------------0-------------------------------|
E|----------------1------------/3--------/3-------1-----------/12-|
These are the scars deep in your heart this is the place you where born

G|----------------------------------------------------------------|
D|----------------------------------------------------------------|
A|0-----------------------3-------0-------------------------------|
E|--------0-------1-----------3-----------3-------1---------------|
This is the hole where most of your soul comes ripping out from the places
                           You've been torn

~CHORUS 2~

G|----------------------------------------------------------------|
D|----------------------------------------------------------------|
A|0-0-0-----------3-3-3-----------0-0-0-----------3-3-3---3-3-3---|X[2]
E|--------1-1-1-----------1-1-1-----------3-3-3-------------------|
And I am always always always yours

~INTERLUDE~

G|----|----------------------------------------------------------------|
D|----|------------------------------------------2---------------------|
A|----|0---------------0-----------------------3-----------------------|
E|-1h3|----1---0-----------1---0-------0-3---3-----------3-------3p1-0-|

~BRIDGE~

Listen for timing.

G|---------------------------------------------------------------------|
D|----------------------------6------------------------------7---------|
A|------5h7-----3p2---2---0-------------5h7---5---3---0---/7---7-5-3-0-|
E|5---5---------------------------5------------------------------------|
You will always have this spark in me the part that shines in your eyes

G|---------------------------------------------------------------------|
D|---------------------------------------------------------------------|
A|5---7---7p5h7p5h7---5---3---3/5-7---5--3-----------------------------|
E|-------------------------------------------3-1-1-1-1-1-1-1-1-3-3-3-3-|
You where always my poetry you where always mine

G|--------------------------------|
D|----3/5-5-5-5-7-7-5-----------\-|
A|3/5-----------------------------|
E|--------------------------------|

~REPEAT CHORUS~

You repeat the chorus three times instead of two, and then add this.


G|----------------------------------------------------------------|
D|----------------------------------------------------------------|
A|0-0-0-----------3-3-3-----------0-0-0-----------3---------------|
E|--------1-1-1-----------1-1-1-----------3-3-3-------------------|

~OUTRO~

NO BASS

=============================================================================
/ = slide up
\ = slide down
h = hammer on
p = pull off

The bridge was a little sketchy, but the rest should be 100% correct. If you
find something wrong, you can leave a comment so I can fix it.

Peace, Love, I'm out.
Suggest correction
Give kudos to tab author, rate the tab!
1 2 3 4 5
comments
print report bad tab
guest
You may want to rate the tab now too:
select rating
Wanna post a correction for this tab? Suggest correction