Oops, an error
Loading. Please wait.

Always Bass Tab

version 1
version 1

Whole song

914 views 1 this week
no commentswrite comment
1 2 3 4 5
please rate
add to favorites
launch autoscroll
font size
0
reset
guitar tuner
Autoscroll
slow
fast
+/-
esc
set tempo
stop
Help us to improve Ultimate-Guitar.com Take our survey!
×
Contributor
Difficulty
novice
-----------------------------------------------------------------------------
                                   ALWAYS                     SWITCHFOOT     
-----------------------------------------------------------------------------

Tabbed by:hurricaneherman
Tuning:Standard

Here is the bass tab for Switchfoot's song "Always" from their album
Hello Hurricane.

=============================================================================

~VERSE 1~

NO BASS

This is the start this is your heart this is the day you where born
This is the sun these are your lungs this is the day you where born

=============================================================================

~CHORUS 1~

NO BASS

And I am always always always yours and I am always always always yours

=============================================================================

~VERSE 2~

G|----------------------------------------------------------------|
D|----------------------------------------------------------------|
A|3-------------------------------0-------------------------------|
E|----------------1----------------------/3-------1-----------/12-|
These are the scars deep in your heart this is the place you where born

G|----------------------------------------------------------------|
D|----------------------------------------------------------------|
A|0-----------------------3-------0-------------------------------|
E|--------0-------1-----------3-----------3-------1---------------|
This is the hole where most of your soul comes ripping out from the places
You've been torn

=============================================================================

~CHORUS 2~

G|----------------------------------------------------------------|
D|----------------------------------------------------------------|
A|0-0-------------3-3-------------0-0-------------3-3-------------|X[2]
E|--------1-1-------------1-1-------------3-3---------------------|
And I am always always always yours

=============================================================================

~INTERLUDE~

G|----|----------------------------------------------------------------|
D|----|-------------------------------------------2--------------------|
A|----|0---------------0------------------------3----------------------|
E|-1h3|----1---0-----------1---0---------1-3---3----------3------3p1-0-|

=============================================================================

~BRIDGE~

G|----------------------------------------------------------------|
D|----------------------------------------------------------------|
A|--------3-3-3-----------3-3-----0-0---0---------0-0-0-------3-3-|
E|1-1-1-----------1-1-1-------3-3-----1---3-3-3-----------1-1-----|
Hallelujah I'm caving in hallelujah I'm in love again hallelujah I'm a
Wretched man hallelujah every breathe is a second chance

=============================================================================

~REPEAT CHORUS 2 X[2]~

NOTE:Lyrics are different than the other chorus.
=============================================================================

~OUTRO~

NO BASS

=============================================================================

/ = slide up
h = hammer-on
p = pull-off

This tab should be 100% correct but if you see something wrong, you can post
a comment, so I can fix it.
I hope this tab is helpful, and easy to understand.

Peace, Love, I'm out.
comments
We did not receive enough feedback on this tab! Please rate:
print report bad tab
1 2 3 4 5
I want to post or [tab]
guest
You may want to rate the tab now too:
select rating
Please do not post tabs as comments. Select "correction" instead!