Oops, an error
Loading. Please wait.

Always Tab

version 2
version 2

Whole song

656 views 1 this week
no commentswrite comment
1 2 3 4 5
please rate
add to favorites
launch autoscroll
font size
0
reset
how to read this tab
guitar tuner
Autoscroll
slow
fast
+/-
esc
set tempo
stop
Help us to improve Ultimate-Guitar.com Take our survey!
×
Author
Difficulty
Tuning
novice
D A D G B E
Verse.
e|----------------------------------------------------------------------|
B|----------------------------------------------------------------------|
G|----------------------------------------------------------------------|
D|---10-10-10-10-10---3-3-3-3-3---7-7-7-7-7---5-5-5-5-5---3-3-3-3-3-----|
A|---10-10-10-10-10---3-3-3-3-3---7-7-7-7-7---5-5-5-5-5---3-3-3-3-3-----|
D|---10-10-10-10-10---3-3-3-3-3---7-7-7-7-7---5-5-5-5-5---3-3-3-3-3-----| 2x

At the 2nd time verse, play it one time, and then:
e|----------------------------------------------------------------------|
B|----------------------------------------------------------------------|
G|----------------------------------------------------------------------|
D|----------5--------7-------------------------5---------7--------------|
A|--3------------------------7----------3--------------------------3----|
D|----------------------------------------------------------------------|

Chorus.
e|----------------------------------------------------------------------|
B|----------------------------------------------------------------------|
G|----------------------------------------------------------------------|
D|--7-7-7--3-3-3-----10-10-10----3-3-3------7-7-7--5-5-5-----3-3-3------|
A|--7-7-7--3-3-3-----10-10-10----3-3-3------7-7-7--5-5-5-----3-3-3------|
D|--7-7-7--3-3-3-----10-10-10----3-3-3------7-7-7--5-5-5-----3-3-3------|
     Al-    ways       Al        ways          Al---ways     yours

Slide guitar.
e|----------------------------------------------------------------------|
B|--1/8---10\5---1/8---10\5---1/8---12b1312\10---1/8---10\5-------------|
G|----------------------------------------------------------------------|
D|----------------------------------------------------------------------|
A|----------------------------------------------------------------------|
D|----------------------------------------------------------------------|

Bridge
e|----------------------------------------------------------------------|
B|----------------------------------------------------------------------|
G|----------------------------------------------------------------------|
D|--3-3-3-3-------10-10-10-10--------3-3-3-3--------10-10-10-10---------|
A|--3-3-3-3-------10-10-10-10--------3-3-3-3--------10-10-10-10---------|
D|--3-3-3-3-------10-10-10-10--------3-3-3-3--------10-10-10-10---------|
    Hallelujah       in             hallelujah       again

e|----------------------------------------------------------------------|
B|----------------------------------------------------------------------|
G|----------------------------------------------------------------------|
D|--9\\5\\7-------------3-3-3-----10-10-10----3-3-3-----------10-10-10--|
A|--9\\5\\7-------------3-3-3-----10-10-10----3-3-3-----------10-10-10--|
D|--9\\5\\7-------------3-3-3-----10-10-10----3-3-3-----------10-10-10--|
   ha-le--lujah       wretched       man      hallelujah        chance.


Chorus 4x
Solo can be played during chorus.
e|-----------------------------------------------------------------------|
B|-----------------------------------------------------------------------|
G|--12-10-9-10-12-------12-10-9-10-9---------12-10-9-10-9--9---------9---|
D|---------------10--------------------------------------12--12-10-12----|
A|------------------------------------12---------------------------------|
D|-----------------------------------------------------------------------|

God Bless!
Suggest correction
Give kudos to tab author, rate the tab!
1 2 3 4 5
comments
print report bad tab
guest
You may want to rate the tab now too:
select rating
Wanna post a correction for this tab? Suggest correction