Oops, an error
Loading. Please wait.

Amateur Lovers Bass Tab

1,152 views 1 this week
2 commentsread comments
1 2 3 4 5
x 4
add to favorites
launch autoscroll
font size
0
reset
guitar tuner
Autoscroll
slow
fast
+/-
esc
set tempo
stop
Help us to improve Ultimate-Guitar.com Take our survey!
×
Author
Difficulty
intermediate
Intro
G|---/9-9-7----7---------|
D|----------979---14\2---|
A|-----------------------|
E|-----------------------|

G|-----------------|    G|------------------|
D|-2-2-------------|    D|--2-2-0-00------0-|
A|------5-55-0-000-|    A|--------------0---|
E|-----------------|x3  E|----------3-3-----|

Verse
G|------------------|
D|------------------|
A|--7-7-5-55-0-000/-|
E|------------------|x8

Pre Chorus
G|----------------|
D|----------------|
A|--2---0-2--0-2--|
E|----------------|

Chorus
|-------------------------------------------------------|
|------------------------------------------------------2|
|---7-7--6-6--4-4--2-2222---0-00---2--7-7--6-6--4-4--24-|
|-------------------------------------------------------| 

----------|
----------|
--0-00--2-|
----------|

G|--------------------------------------------------|
D|-----------44444444-------------------------------|
A|---44444444-------4444444422222222----------------|
E|--------------------------------------------------|

G|-----------------------|G|-----------------------------|
D|-----2---2-2--------2--|D|---2-------------------------|
A|---24-------2-24-424---|A|-----5-55-0-000--------------|
E|-----------------------|E|-00--------------------------|x2




Break
G|---------------|G|-------------------|
D|---------------|D|-------------------|
A|--5-55--0-000--|A|--/7-7-5-55--0-000-|
E|---------------|E|-------------------|x6

G|--------------|
D|--------------|
A|--2----2--0-2-|
E|--------------|

Chorus
|-------------------------------------------------------|
|--2---------------------------------------------------2|
|24-7-7--6-6--4-4--2-2222---0-00---2--7-7--6-6--4-4--24-|
|-------------------------------------------------------| 

----------|
----------|
--0-00--2-|
----------|
G|--------------------------------------------------|
D|-----------444444---------------------------------|
A|---44444444------24444444422222222----------------|
E|--------------------------------------------------|

G|-----------------------|G|-----------------------------|
D|-----2---2-2--------2--|D|---2-------------------------|
A|---24-------2-24-424---|A|-----5-55-0-000--------------|
E|-----------------------|E|-00--------------------------|x2

G|------------------|
D|---0-0------------|
A|--------3-33------|
E|-------------3-33-|x3

G|-----------------------------------|
D|-----------------------------------|
A|---7--------7~--6~-4~-2~-0~-----2~-|
E|---------------------------4~-2~---|

G|----------------------------------------------------------|
D|-----------444444444--------44444444----------------------|
A|---44444444---------44444444--------44444444222222222-----| 
E|----------------------------------------------------------|


G|-----------------------|G|-----------------------------|
D|-----2---2-2--------2--|D|---2-------------------------|
A|---24-------2-24-424---|A|-----5-55-0-000--------------|
E|-----------------------|E|-00--------------------------|x3

G|--------------------|
D|--------------------|
A|---7-7--7--5-5-----2|
E|----0-0--0-----3-35-|x8
End on E
Suggest correction
comments
print report bad tab
2 comments total.
0 reply
abioladawn 31 Aug 31, 2007 07:29 PM

This is My first tab so be fair .=]

0 reply
aaron_masta 40 Dec 07, 2009 07:06 AM

hey, i like it! :)

guest
You may want to rate the tab now too:
select rating
Wanna post a correction for this tab? Suggest correction