Oops, an error
Loading. Please wait.

Awakening Bass Tab

version 1
version 1

Whole song

Interactive

1,890 views 3 this week
no commentswrite comment
1 2 3 4 5
please rate
add to favorites
launch autoscroll
font size
0
reset
guitar tuner
Tab Pro tools
  • play this tab
  • loop segment
  • change instrument
  • show fretboard
  • metronome
Autoscroll
slow
fast
+/-
esc
set tempo
stop
Contributor
Difficulty
intermediate
Awakening - Switchfoot
Standard tuning

N.B – I’ve used (~) to indicate a rest/empty beat instead of ‘let ring’ so that the 
for the verse riffs is easier to follow. In this tab (=) means ‘let ring’.
Comments much appreciated, I reckon this is pretty accurate. Enjoy!

Intro
G|------------------------------------------------------------------|
D|------------------------------------------------------------------|
A|---------------------12(x6)-0(x6)-9-11-9-~------------------------|
E|-12(x6)-0(x6)-12(x4)-----------------------12(x4)-\-\-0-~-~-0(x7)-|

G|-----------------------|
D|-----------------------|
A|-12(x6)-0(x6)-9-11-9-\-|
E|-----------------------|

Verse 1
G|-----------------|----------------|----------------|---------*-1st-&-|
D|-----9-6---------|----------------|----------------|---------*-3rd---|
A|-7-9-----------7-|----6-----------|--7-9-----------|----4----*-time--|
E|-----------------|7-9---7-------7-|9-----9-------0-|5-7---5--*-7---0-|

                                                               *--2nd--|
                                                               *--time-|
                                                               *-------|
                                                               *-7-7---|

                                                               *-last--|
                                                               *-time--|
                                                               *-------|
                                                               *-~-~-~-|
Chorus
G|-----------------------------------------------------------------|
D|-----------------------------------------------2-----------------|x
A|-7-7-7-7-7-7-----2-2-2-2-2-2-2---4-4-4-4-4-4-4---0-0-0-0-0-0-0---|2
E|-------------0-2---------------4-------------------------------7-|

                                            *---2nd--*
                                            *--time--*
                                            *4-6-7-0-*
                                            *--------*

G|---------------------------------------------------------------------|
D|---------------------------------------------------------------------|
A|-------------0-2-2-2-4-4-6-6-7---4-4-4-4-4-6-7-12-12-12-12-----------|
E|-0-0-2-2-4-0-------------------7---------------------------12-12-5-7-|

G|-----------------|
D|-----------------|
A|-----------------|
E|-9-9-9-9-9-9-9-9-|

Link
G|-------------------------------------------|
D|-------------------------------------------|
A|---------------------12(x6)-0(x6)-9-11-9-~-|
E|-12(x6)-0(x6)-12(x4)-----------------------|

Verse 2
G|-----------------|------------------|----------------|----------|
D|-----9-6---------|------9-6---------|--9-6-----------|7---9-6---|x
A|-7-9-----7-~-~-9-|~---7-----~-9-~---|7-----~-~-7-~-~-|--9-----9-|4
E|-----------------|--7-------------9-|----------------|----------|

                                                       *----last--|
                                                       *7---9-6---|
                                                       *--9-----~-|
                                                       *----time--|


Link2
G|---------------------------------|
D|---------------------------------|
A|---------5=----------------------|
E|-0=--------------5=------=-------|

Bridge
G|-----------------------------------------------------------------|
D|-----------------------------------------------------------------|
A|-4=------------------------------------------------------------2/|
E|-----------------5=--------------7=--------------5=--------------|

G|-----------------------------------------------------------------|
D|------------------11---------------------------------------------|
A|-------------9h11------------------------------------------------|
E|-4=--------------------9\5=-------------5/7=--------------5(x24)-|
comments
We did not receive enough feedback on this tab! Please rate:
print report bad tab
1 2 3 4 5
I want to post or [tab]
guest
You may want to rate the tab now too:
select rating
Please do not post tabs as comments. Select "correction" instead!