Oops, an error
Loading. Please wait.

Awakening Tab

version 1
version 1

Whole song

Interactive

14,759 views 12 this week
3 commentsread comments
1 2 3 4 5
worth learning
x 4
add to favorites
launch autoscroll
font size
0
reset
how to read this tab
guitar tuner
Autoscroll
slow
fast
+/-
esc
set tempo
stop
Help us to improve Ultimate-Guitar.com Take our survey!
×
Contributor
DomFrench 696
Switchfoot - Awakening

Tab by - Dom French

Tuning - Standard

All chords played are power chords. ( exept the Asus2 )

Intro - Jon ( Lead singer ) Plays - ( Palm Muted ) (Part 1)

E -----------------------------------------------------------|
B -----------------------------------------------------------|
G ----9-------------6----------------------------------------|
D ----9-X16---------7---X16----------------------------------|
A ----7-------------7----------------------------------------|
E ------------------5----------------------------------------|

Whilst Jon plays that Drew ( Lead guitarist ) Plays - ( Palm Muted ) (Part 2)

E --------------------------------------------------------|
B --------------------------------------------------------|
G ----999--11-11-11---16-16-16---13-13-13-14-13-14--------|
D --------------------------------------------------------|
A --------------------------------------------------------|
E --------------------------------------------------------|

After that goes through a few times it goes through again but not muted.
On the last time of doing this play -

E --------------------------------------------------------|
B --------------------------------------------------------|
G ----9----------2------------6---------------------------|
D ----9---X6-----2---X6-------7---X10---------------------|
A ----7----------0------------7---------------------------|
E ----------------------------5---------------------------|

Verse 1 -

E --------------------------------------------------------|
B --------------------------------------------------------|
G ----9----------------------------6----------------------|
D ----9-X8----------9-X8-----------7--X16-----------------|
A ----7-------------7--------------7----------------------|
E ------------------7--------------5----------------------|

Then you can either play -

E --------------------------------------------------------|
B --------------------------------------------------------|
G ----6---------4----------2------------------------------|
D ----6--X8-----4--X8------2--X8--------------------------|
A ----4---------2----------0------------------------------|
E ----4---------2----------X------------------------------|

Or -

E -----------------------------------------------------------|
B -----------------------------------------------------------|
G ----9----------------------------6-------------------------|
D ----9-X8----------9-X8-----------7--X8---------------------|
A ----7-------------7--------------7-------------------------|
E ------------------7--------------5-------------------------|

Chorus -

E ----0-------------0--------------0-------------------------|
B ----0-------------0--------------0-------------------------|
G ----9-------------8--------------6-------------------------|
D ----9-X8----------9-X8-----------7--X8---------------------| X2
A ----7-------------9--------------7-------------------------|
E ----0-------------7--------------5-------------------------|

E -----------------------------------------------------------|
B -----------------------------------------------------------|
G ----9-------------8----------------------------------------|
D ----9-X8----------9-X4-------------------------------------|
A ----7-------------9----------------------------------------|
E ------------------7----------------------------------------|

Repeat intro X1

Repeat Verse

Repeat Chorus

Middle 8 -

E -----------------------------------------------------------|
B -----------------------------------------------------------|
G ----6------------------------------------------------------|
D ----6------------------------------------------------------|
A ----4------------------------------------------------------|
E ----4------------------------------------------------------|

Repeat until Jon goes " Were awakening the dream, Were awakening Yea! "

At this point Repeat intro Part 1 X1

And Part 2 once.
Suggest correction new What's this?
You can suggest a correction to this tab. Community and Mods will review your correction and vote to approve or reject it.
comments
print report bad tab
3 comments total.
0 reply
TIMAY21 2,076 wrote on December 14 2006, 08:02 am

man, that's all over the place

Tim~

0 reply
I-Z 506 wrote on December 14 2006, 12:52 pm

its ok i guess but its missing the bridge

0 reply
RainOnMeAgain 11 wrote on March 18 2011, 11:36 pm

the verse is E5, B5, C#5 and A5
the chorus is the same with the top 2 strings open

G-----------------------444---
D-------999-------222444222464
A-7779997779N9-000000000000000
E-000000000000---------------- 2x for intro

N is 11th fret

guest
You may want to rate the tab now too:
select rating
Please do not post tabs as comments. Select "correction" instead!