Oops, an error
Loading. Please wait.

Awakening Bass Tab

version 2
version 2

Whole song

Interactive

6,212 views 12 this week
1 commentread comment
1 2 3 4 5
excellent!
x 3
add to favorites
launch autoscroll
font size
0
reset
guitar tuner
Tab Pro tools
  • play this tab
  • loop segment
  • change instrument
  • show fretboard
  • metronome
Autoscroll
slow
fast
+/-
esc
set tempo
stop
Difficulty
intermediate
-------------------------------------------------------------------------------
			     AWAKENING - Switchfoot
-------------------------------------------------------------------------------

Tabbed By:  VArocker07
Tuning: Standard

Intro
G|--------------------------------------------------------------------------------------|
D|--------------------------------------------------------------------------------------|
A|--7-7-7-7-7-7-7-7--7-7-7-7-7-7-7-7--------------------------------------------|  x 2--|
E|---------------------------------------------5-5-5-5-5-5-5-5--5-5-5-5-5-5-5-5---------|

(0:15)
G|---------------------------------------------------------------------------|
D|---------------------------------------------------------------------------|
A|--7-7-7-7-7-7-7-7--7-7-7-7-7-7-7-7---------------------------------9-11-9--|
E|---------------------------------------------5-5-5-5-5-5-5-5--5-5-5-5------|

G|----------------------------------------------------------------------------|
D|----------------------------------------------------------------------------|
A|--7-7-7-7-7--x--7---7-7-7-7-7-7-7-----------------------------------9-11-9--|
E|-------------------------------------------5-5-5-5-5-5-5-5--5-5-5-5---------|

Verse 1 (0:30)
“Facedown with the LA curbside ending...”
G|------------------------------------------------------------------------------|
D|--------9-6-------------------------------------------------------------------|
A|--7-9----------------6--------------------------------------4--------7--------|
E|--------------7-7--9---7------9-9--11--12--9------5-5---7----5----------------|

G|------------------------------------------------------------------------------|
D|--------9-6-------------------------------------------------------------------|
A|--7-9----------------6--------------------------------------4-------7-7-------|
E|--------------7-7--9---7------9-9--11--12--9------5-5---7----5----------------|

(0:53) “The first star that I saw last night...”
G|------------------------------------------------------------------------------|
D|--------9-6-------------------------------------------------------------------|
A|--7-9----------------6--------------------------------------4----------7------|
E|--------------7-7--9---7------9-9--11--12--9------5-5---7----5----------------|

G|------------------------------------------------------------------------------|
D|--------9-6-------------------------------------------------------------------|
A|--7-9----------------6--------------------------------------4-----------------|
E|--------------7-7--9---7------9-9--11--12--9------5-5---7----5----------------|

Chorus (1:01)
“Here we are now...”
G|------------------------------------------------------------------------------|
D|------------------------------------------------------------------------------|
A|--7-7-7-7-7-7-7-7--/--2-2-2-2-2-2-2-2--/--4-4-4-4-4-4-6-7----0-0-0-0-0-0-0-0--|
E|------------------------------------------------------------------------------|

G|------------------------------------------------------------------------------|
D|------------------------------------------------------------------------------|
A|--7-7-7-7-7-7-7-7--/--2-2-2-2-2-2-4-7--/--4-4-4-4-4-4-6-7----0-0-0-0-0-0-0-0--|
E|------------------------------------------------------------------------------|

(1:16) “Maybe its called ambition...”
G|-----------------------------------------------------------------------------------|
D|-----------------------------------------------------------------------------------|
A|-7-9-11-7-----------------------------------12-12-12-12-12-12-/-2-4-4-4-4-4-4-4-4--|
E|--------------7-9-11-12----9-9-9-11-12---------------------------------------------|

(1:27) “We’re awakening...”
G|-------------------------------------------------------------------------------|
D|-------------------------------------------------------------------------------|
A|--7-7-7-7-7-7-7-7--7-7-7-7-7-7-7-7----------------------9-11-9-----------------|
E|--------------------------------------------5-5-5-5-5-5-5----------------------|

Verse 2 (1:35)
“Last week saw me”
G|-------------------------------------------------------------------------------|
D|-------9-6----------6--9--6------------9-6------9-6-9-6------------------------|
A|--7-9-----7------9---9------9-----7-9--------7-----------9------------|   x 3--|
E|-------------------------------------------------------------------------------|

(1:58) “I don’t know that I ever felt so alive...”
G|-----------------------------------------------------------------------------|
D|-------9-6----------6--9--6------------9-6------9-6-9-6----------------------|
A|--7-9-----7------9---9------9-----7-9--------7-------------------------------|
E|-----------------------------------------------------------------------------|
Chorus (2:05)
“Here we are now”
G|------------------------------------------------------------------------------|
D|------------------------------------------------------------------------------|
A|--7-7-7-7-7-7-7-7--/--2-2-2-2-2-2-2-2--/--4-4-4-4-4-4-6-7----0-0-0-0-0-0-0-0--|
E|------------------------------------------------------------------------------|

G|------------------------------------------------------------------------------|
D|------------------------------------------------------------------------------|
A|--7-7-7-7-7-7-7-7--/--2-2-2-2-2-2-4-7--/--4-4-4-4-4-4-6-7----0-0-0-0-0-0-0-0--|
E|------------------------------------------------------------------------------|

(2:20) “Maybe its called ambition...”
G|-----------------------------------------------------------------------------------|
D|-----------------------------------------------------------------------------------|
A|-7-9-11-7-----------------------------------12-12-12-12-12-12-/-2-4-4-4-4-4-4-4-4--|
E|--------------7-9-11-12----9-9-9-11-12---------------------------------------------|

Bridge (2:30)
“Were awakening...”
G|------------------------------------------------------------------------------|
D|------------------------------------------------------------------------------|
A|---------------------5-( Let Ring )-----0 ( Let Ring )------------------------|
E|---0-( Let Ring )-------------------------------------------------------------|

(2:38) “I wanna wake up kicking and screaming”
G|--------------------------------------------------------------------------------|
D|-----------------------------------5-7-/-11-------------------------------------|
A|---4----0----2----0------2-4----------------0----2----0-------------------------|
E|--------------------------------------------------------------------------------|

(3:04) “Its beating...”
G|--------------------------------|
D|--------------------------------|
A|---0-0-0-0-0-0-0-0------|   x 3-|
E|--------------------------------|

Chorus (3:12)
“Here we are now...”
G|------------------------------------------------------------------------------|
D|------------------------------------------------------------------------------|
A|--7-7-7-7-7-7-7-7--/--2-2-2-2-2-2-2-2--/--4-4-4-4-4-4-6-7----0-0-0-0-0-0-0-0--|
E|------------------------------------------------------------------------------|

G|------------------------------------------------------------------------------|
D|------------------------------------------------------------------------------|
A|--7-7-7-7-7-7-7-7--/--2-2-2-2-2-2-4-7--/--4-4-4-4-4-4-6-7----0-0-0-0-0-0-0-0--|
E|------------------------------------------------------------------------------|

 (3:27) “Maybe its called ambition...”
G|------------------------------------------------------------------------------------|
D|------------------------------------------------------------------------------------|
A|--7-9-11-7-----------------------------------12-12-12-12-12-12-/-2-4-4-4-4-4-4-4-4--|
E|--------------7-9-11-12----9-9-9-11-12----------------------------------------------|

Outro (3:38)
“We’re awakening a dream...”
G|-----------------------------------------------------------------------------|
D|-----------------------------------------------------------------------------|
A|--0-0-0-0-0-0-0-0-/-4-4-4-4-4-4-4-4--/-0-0-0-0-0-0-0-0-----------------------|
E|-----------------------------------------------------------------------------|

(3:43) “Yeah...”
G|-------------------------------------------------------------------------------|
D|-------------------------------------------------------------------------------|
A|--7-7-7-7-7-7-7-7--7-7-7-7-7-7-7-7---------------------------------------------|
E|---------------------------------------------5-5-5-5-5-5-5-5--5-5-5-5-5-5-5-5--|

G|----------------------------------------------------------------------------|
D|----------------------------------------------------------------------------|
A|--7-7-7-7-7--x--7---7-7-7-7-7-7-7-----------------------------------9-11-9--|
E|-------------------------------------------5-5-5-5-5-5-5-5--5-5-5-5---------|

G|------------------------------------|
D|------------------------------------|
A|---7------( L e t  R i n g )--------|
E|------------------------------------|

| /  slide up
| \  slide down
| h  hammer-on
| p  pull-off
| ~  vibrato
| +  harmonic
| x  Mute note
===============================================================================
comments
We did not receive enough feedback on this tab! Please rate:
print report bad tab
1 2 3 4 5
1 comment total.
0 reply
HerBrothers wrote on November 5 2015, 05:33 pm

I have a feeling in the 2nd verse that it should be

Verse 2 (1:35)
“Last week saw me”
G|--------------------------|
D|---9---9-6----------------|
A|7----9------9----| x 3--|
E|--------------------------|

Instead of

Verse 2 (1:35)
“Last week saw me”
G|--------------------------|
D|---9-6-9-6----------------|
A|7-----------9----| x 3--|
E|--------------------------|

I could be wrong, but it sounds more correct when I play it that way.

I want to post or [tab]
guest
You may want to rate the tab now too:
select rating
Please do not post tabs as comments. Select "correction" instead!